Acordes y tablaturas para guitarra

Acordes y Tablaturas
Usuario: Password:

Buscar:
Acordes y Tablaturas >> Letra M >> Acordes de METALLICA >> The Unforgiven
Tablatura de The Unforgiven, METALLICA

The Unforgiven

METALLICA






Metallica Rules!!!!!!! Questions or Comments? e-mail me at
[email protected]


First comes the horn,
intro is by James.(acoustic)
|--------------------------------|
|-0-----0-----0-----0-----1------|
|---2-----2-----2-----2-----2----|
|-----2-----2-----2-----2-----2--|
|-0------------------------------|
|--------------------------------|
This repeats until Kirk starts playing, then play:

Clean electric by Kirk:
|------------------------------------------|
|------------------------------------------|
|--2--4--4h5---5-4-2----2--4--4h5---5--2---|
|------------------------------------------|
|------------------------------------------|
|------------------------------------------|

|------------------------------------------|
|------------------------------------------|
|--2--4--4h5---5-4-2----2--4--4h5---5--2---|
|------------------------------------------|
|------------------------------------------|
|------------------------------------------|

|-------------------------------------------|
|-------------------------------------------|
|--2--4--4h5--5--5-5-4-----4-----2--2h4--2--|
|-----------------------5----2-2------------|
|-------------------------------------------|
|-------------------------------------------|

|------------------------------------------------|
|------------5--5--5--3--------------------------|
|--2--4--4h5------------4--4\--1-1--4p0--2h4-2---|
|------------------------------------------------|
|------------------------------------------------|
|------------------------------------------------|

|-------------------------------|
|------0-----0-----0-----1------|
|--2-----2-----2-----2-----2----|
|----2-----2-----2-----2-----2--|
|-------------------------------|
|-------------------------------|

|--------------------------------|
|-0-----0-----0-----0-----1------|
|---2-----2-----2-----2-----2----|
|-----2-----2-----2-----2-----2--|
|-0------------------------------|
|--------------------------------|

THIS PART IS MY MODIFIED VERSION WHICH INCLUDES THE NOTES OF JAMES'
VOICE WITH KIRK'S GUITAR---- IT MAY SEEM HARD, BUT PRACTICE IT 'CAUSE 
IT SOUNDS SWEEEEEEEET WHEN PLAYED RIGHT!!

---1ST CHORUS---

|-------------------------------------------|
|-------------------8--8--7--7--------------|
|-5--3--2--3--------9--9--7--7--5--5--------|
|-7--5--4--5--5-----------------7--7--------|
|-------------5-----------------------------|
|-------------------------------------------|

|-------------------------------------------|
|-------------------------------------------|
|-5--5--3--2--3-----------------4-----------|
|-7--7--5--4--5--5---5-5--7--7-----7~~~~~---|
|----------------5--------------------------|
|-------------------------------------------|

|-------------------------------------------|
|-------------------8--8--7--7--------------|
|-5--3--2--3--------9--9--7--7--5--5--------|
|-7--5--4--5--5-----------------7--7--------|
|-------------5-----------------------------|
|-------------------------------------------|

|-------------------------------------------|
|-------------------------------------------|
|-5--5--3--2--3-----------------4-----------|
|-7--7--5--4--5--5---5-5--7--7--------------|
|----------------5--------------------------|
|-------------------------------------------|
                     The young man struggles 


    P.M--|  P.M--|  P.M--|  P.M--| 
|---------------------------------|---------------------------------|
|---------------------------------|---------------------------------|
|-5-------4-------2-------0-------|---------------------------------|
|---0-------0-------0-------0-----|-5-------------------------------|
|-----0-0-----0-0-----0-0-----0-0-|-3---------5-3-0-5---------------|
|---------------------------------|-----------------3---------------|
on and  on. He knows,_      oo, a  vow unto   his own            that

    P.M--|  P.M--|  P.M--|  P.M--|
|---------------------------------|---------------------------------|
|---------------------------------|---------------------------------|
|-5-------4-------2-------0-------|---------------------------------|
|---0-------0-------0-------0-----|-5-------------------------------|
|-----0-0-----0-0-----0-0-----0-0-|-3---------5-3-0-3---------------|
|---------------------------------|-----------------5---------------|
never from  this day          his will they'll take a - way__________


|-------------------------------------------|
|-------------------------------------------|
|--2--4--4h5--5--5-5-4-----4-----2--2h4--2--|
|-----------------------5----2-2------------|
|-------------------------------------------|
|-------------------------------------------|
What I've felt...

|------------------------------------------------|
|------------5--5--5--3--------------------------|
|--2--4--4h5------------4--4\-1-1--2--2h4--2-----|
|------------------------------------------------|
|------------------------------------------------|
|------------------------------------------------|
Never Be, Never See...

(Repeat the 2 lines)

Then play the intro part.

---2nd CHORUS IS THE SAME AS THE 1ST (REPEAT EVERYTHING UNTIL 
KIRK PLAYS THE INTERLUDE)---

(KIRK USES CLEAN ELECTRIC WITH ECHO, NOT REVERB)
Interlude:

|-------------------------------------------------|
|-------------------------------5-5-5-5-5-5-5(5)--|
|---4-5-7-5-4h5p4---4-----------4-5-7-9-7-5-5h7---|
|-7---------------7---5-5-7-----------------------|
|-------------------------------------------------|
|-------------------------------------------------|

|----------------------------------------------------|
|-8/10/8---7-----------------------------------------|
|-7/9 /7---7--7-5---5------------------------5-------|
|--------9--------7---7-5-7~~~-------------5---5-5/7-|
|----------------------------------3/5-6-7-----------|
|------------------------------3-5-------------------|

|-------------------7---7-----10--------12---------14-----15--17--|
|--8-7h8p7---7-8-10---8---8-8----8-8/10---10-10/12---12-12--14----|
|----------9------------------------------------------------------|
|-----------------------------------------------------------------|
|-----------------------------------------------------------------|
|-----------------------------------------------------------------|

Here comes the solo. Kirk playes with echo and distortion

|--2b/(3)-(3)b\2----------------------------------------------------|
|--3b/(4)-(4)b\3--1-------------------------------------------------|
|-------------------2------2--0-------------------------------------|
|--------------------------------2--0-----0-------------------------|
|--------------------------------------3-----3--0-----0--3----------|
|--------------------------------------------------3----------------|
       
                             
                                                                   
|------------0---0-2-0-2-3-2-3--12-10-12----8-------10----8-15b/(17)|
|----1-3-1-3---3-------------------------10---10--10---10-----------|
|--2----------------------------------------------------------------|
|-------------------------------------------------------------------|
|-------------------------------------------------------------------|
|-------------------------------------------------------------------|

       

|--(17)-(17)b\15-12-20b/(22)-(22)-(22)b\20--17--20p17---------------|
|-----------------------------------------------------20--20b/(22)--|
|-------------------------------------------------------------------|
|-------------------------------------------------------------------|
|-------------------------------------------------------------------|
|-------------------------------------------------------------------|

      

|-------------------------------------------------------------------|
|-------------------------------------------------------------------|
|----17-19-17-16-17----16-------------------------------------------|
|--9----------------19-----17-16-14-16-14-12----12------------------|
|---------------------------------------------15----15-14-15-14-12--|
|-------------------------------------------------------------------|

       

|-------------------------------------------------------------------|
|-------------------------------------------------------------------|
|-------------------------------------------------------------------|
|--17-16-14-16-14-12----12------------------------------------------|
|--------------------15----15-14-15-14-12---------------------------|
|-------------------------------------------------------------------|

       

|-----8--12p8----12p8----12p8----12p8----12p8----12p8----12p8-------|
|--10---------10------10------10------10------10------10------10----|
|-------------------------------------------------------------------|
|-------------------------------------------------------------------|
|-------------------------------------------------------------------|
|-------------------------------------------------------------------|



|--10b/(12)-(12)b\10-8--15b/(17)--17-19-20-19-17-19-17h19p17-15b(17)|
|-------------------------------------------------------------------|
|-------------------------------------------------------------------|
|-------------------------------------------------------------------|
|-------------------------------------------------------------------|
|-------------------------------------------------------------------|



|--17-15------------15----------------------------------------------|
|--------17-15b/(17)---17-15-15-13-15-13-15b/(17)--15-13------------|
|-------------------------------------------------------------------|
|-------------------------------------------------------------------|
|-------------------------------------------------------------------|
|-------------------------------------------------------------------|



|--15--13-15-13-12~~~~--13p12~~~~~---------------------------------------|
|-------------------------------------------------------------------|
|-------------------------------------------------------------------|
|-------------------------------------------------------------------|
|-------------------------------------------------------------------|
|-------------------------------------------------------------------|


Keep repeating this. James playes his acoustic while Kirk plays this.
(Repeat until the end of the song)
|-------------------------------------------|
|-------------------------------------------|
|--2--4--4h5--5--5-5-4-----4-----2--2h4--2--|
|-----------------------5----2-2------------|
|-------------------------------------------|
|-------------------------------------------|


|------------------------------------------------|
|------------5--5--5--3--------------------------|
|--2--4--4h5------------4--4\-1-1--2--2h4--2-----|
|------------------------------------------------|
|------------------------------------------------|
|------------------------------------------------|

TABBED BY JASON KRITZ: [email protected]
      -HOPE YOU ENJOY THIS SLIGHTLY MODIFIED VERSION WITH MORE
CORRECT PARTS THAN THE OTHER TABS.  PEACE!!!!!!!


Que te parecio? Calificalo con estrellas!!

Rating: 8.6/10 (824 votos)

Este fichero es trabajo propio de su transcriptor y representa su interpretación personal de la canción. El material contenido en esta página es para exclusivo uso privado, por lo que se prohibe su reproducción o retransmisión, así como su uso para fines comerciales.


Deja tus comentarios:

Letras de METALLICA
Letras de canciones | Musica Independiente