Enviado por:
tomito

Mana, Ojala Pudiera Borrarte

Intro
E|-----|---|----|
A|-----|---|----|
D|-----|---|-5--|
G|-2h5-|-7-|----|

Ojala y te me
E|----|---|----|
A|----|---|----|
D|----|---|-5--|
G|--5-|-7-|----|

Ojala y pudiera
E|----|----|
A|----|----|
D|----|----|
G|--5-|-7--|

..............................Ojala y se me olvidara"
E|-3h5-3h5-10h12-------------|----|----|----------|--------------|
A|---------------10h12-------|----|----|----------|-10-------10--|
D|---------------------------|----|----|----------|----10-12-----|
G|---------------------14/16-|-14-|-12-|-11h12-11-|--------------|

Ojala y que tu sonrisa  ..borrar..
E|-------|----|-----|   |---------|
A|-------|----|-10--|   |--15-17--|
D|--9-10-|-12-|-----|   |---------|
G|-------|----|-----|   |---------|

  Vuelve cora   zon
E|------|-----|-----|-3---------|-3-3--3-3-|-----|-----|-3----------|
A|--5-7-|-3-5-|-3-3-|---3-3-3-5-|----------|-3-5-|-3-5-|---3-3-3-5--|
D|------|-----|-----|-----------|----------|-----|-----|------------|
G|------|-----|-----|-----------|----------|-----|-----|------------|

Vuelve corazon            No vuelve
E|------|-----|-----|   |----|---|-7--7-7--|
A|--5-7-|-3-5-|-3-3-|   |--7-|-9-|---------|
D|------|-----|-----|   |----|---|---------|
G|------|-----|-----|   |----|---|---------|

Ojala y te me
E|-----------|-3-3--3-3-|----------|---------------|
A|--3-3--3-3-|----------|-2-2--2-2-|-----2------3--|
D|-----------|----------|----------|-2-2--2-2-0----|
G|-----------|----------|----------|---------------|

y ojala
E|-----------|-3-3--3-3-|----------|---------------|
A|--3-3--3-3-|----------|-2-2--2-2-|-----2---------|
D|-----------|----------|----------|-2-2--2-2-0-2--|
G|-----------|----------|----------|---------------|


y ojala y te me esfumaras
E|-----------|-3-3--3-3-|----------|----------|----------------|
A|--3-3--3-3-|----------|-2-2--2-2-|-3-3--3-3-|-5-5--5-5--3-5--|
D|-----------|----------|----------|----------|----------------|
G|-----------|----------|----------|----------|----------------|

Solo
E|--3-3--3-3-|----------|----------|-3-3--3-3--|
A|-----------|-3-3--3-3-|-5-5--5-5-|-----------|
D|-----------|----------|----------|-----------|
G|-----------|----------|----------|-----------|

E|-3-3--3--3-|-3-3------3-----|------------|-3-3--3-3--3-3--|
A|-----3--3--|--3--3-3----3-3-|-35-5--35-5-|----------------|
D|-----------|----------------|------------|----------------|
G|-----------|----------------|------------|----------------|

Como puedo
E|--3--------|
A|-----2--3--|
D|-----------|
G|-----------|

..ser
E|--3-|-5h7-----------------|-----------------|
A|----|-----5h7-10h12-------|-----------------|
D|----|---------------------|-----------------|
G|----|---------------14/16-|-14-12-11h12-11--|

E|-----|----------------------|------|----------|----|-3-5---5-3--|
A|--10-|-10-12----------12-10-|------|----------|-10-|-----3------|
D|-----|-------12h14-12-------|-9-10-|-10/14-12-|----|------------|
G|-----|----------------------|------|----------|----|------------|

Se repite

Vuelve corazon, uh, vuelve a mi lado,
Pero no, no, no, no vuelve corazon,
No vuelve, no vuelve, no vuelve no.

Ojala y te me borraras para siempre de mi vida, para no volverte a ver,
Y ojala y te me borraras por las noches, en el dia para no volverte a ver.
Ojala y te me esfumaras de mis sueños, vida mia, y que no me lluevas mas,
Y ojala y que la lluvia me ahogue entre tus brazos para no volverte a ver,

No, ni en sueños, pa’ que pares de llover,
E|------7--------|-------------|-----5-----|
A|--7-7--7-7-3-5-|-3-3--3-3--3-|-5-5--5-5--|
D|---------------|-------------|-----------|
G|---------------|-------------|-----------|

Sueños
E|--3-3-|-----|-----|------|    |--3--|
A|------|-0-0-|-3-3-|-5-5--| x3 |-----|
D|------|-----|-----|------|    |-----|
G|------|-----|-----|------|    |-----|

dudas un mensaje a mi correo
atte. miauricio gatolar
"si ya triunfaste una vez en el dolor, lo haras siempre"
Aviso: Este fichero es trabajo propio de su transcriptor y representa su interpretación personal de la canción. El material contenido en esta página es para exclusivo uso privado, por lo que se prohibe su reproducción o retransmisión, así como su uso para fines comerciales.
comentario del colaborador: no es muy dificil, excepto en algunos jueguitos donde hay que hacerlo de manera rapida pero es mejor que se ubiquen escuchando la cancion bueno espero les guste esta cancion me encanta Tomito ([email protected])

Califica esta canción


Comentarios en Facebook