Acordes y tablaturas para guitarra

Acordes y Tablaturas
Usuario: Password:

Buscar:
Acordes y Tablaturas >> Letra C >> Acordes de Chayanne >> Tiempo de vals
Tablatura de Tiempo de vals, Chayanne

Tiempo de vals

Chayanne






0:00 - 0:06


 ------------------
 --6-6-6-6-4---4-6-
 ------------6-----
 ------------------
 ------------------
 ------------------


0:12 - 0:21 
 ---------------------------------------
 ---------------------------------------
 --6-6-6-6-5-3-5-6--6-5-3-5-6--6-5-3-5-6
 ---------------------------------------
 ---------------------------------------
 ---------------------------------------

 Tiempo de vals es el tiempo hacia atras
 ----------------------------------------
 --6-6-6-6-4-3-4-4-4-4-------------------
 ----------------------------------------
 ----------------------------------------
 ----------------------------------------
 ----------------------------------------

 donde ser lo de siempre es volver a empezar
 ----------------------------------------
 ----3-4-4-4-4-3-------------------------
 --5-------------5-5-3-5-3---------------
 ----------------------------------------
 ----------------------------------------
 ----------------------------------------

 cuando un mundo se para y te observa al girar
 ----------------------------------------
 ----------------3-3-3-3-----------------
 ----2-3-3-3-3-5-------------------------
 --5-------------------------------------
 ----------------------------------------
 ----------------------------------------

 es tiempo para amar
 -----------------------------------------------
 --3-3--4---------------------------------------
 ---------5--3-5--------------------------------
 -----------------------------------------------
 -----------------------------------------------
 -----------------------------------------------

 Tiempo de vals tiempo para sentir
 ----------------------------------------
 --6-6-6-6-4-3-4-4-4-4-------------------
 ----------------------------------------
 ----------------------------------------
 ----------------------------------------
 ----------------------------------------
 y decir sin hablar y escuchar sin oir
 ----------------------------------------
 ----3-4-4-4-4-3-------------------------
 --5-------------5-5-3-5-3---------------
 ----------------------------------------
 ----------------------------------------
 ----------------------------------------

 un silencio q rompe en el aire un violin
 ----------------------------------------
 ----------------3-3-3-3-----------------
 ----2-3-3-3-3-5-------------------------
 --5-------------------------------------
 ----------------------------------------
 ----------------------------------------

 es tiempo de vivir
 ----------------------------------------
 --3-3--4--------------------------------
 ---------5--3-5-------------------------
 ----------------------------------------
 ----------------------------------------
 ----------------------------------------

 1:06 - 1:23

 besame un tiempo de vals 1 2 3 1 2 3 sin dejar de bailar
 -----------------------------------------------
 --6-6-6-4---4-6--6-6-6-4---4-6--6-6-6-4---4----
 ----------6--------------6--------------6---5--
 -----------------------------------------------
 -----------------------------------------------
 -----------------------------------------------

 has q este tiempo de vals 1 2 3 1 2 3 no termine jamas
 ------------------------------------------------
 --6-6-6-7-6-4--------4---4-6--6-6-6-4---4-------
 --------------6--6-6---6--------------6---5-----
 ------------------------------------------------
 ------------------------------------------------
 ------------------------------------------------

 tiempo de vals tiempo para viajar
 ----------------------------------------
 --6-6-6-6-4-3-4-4-4-4-------------------
 ----------------------------------------
 ----------------------------------------
 ----------------------------------------
 ----------------------------------------

 por encima del sol o debajo del mar
 ----------------------------------------
 ----3-4-4-4-4-3-------------------------
 --5-------------5-5-3-5-3---------------
 ----------------------------------------
 ----------------------------------------
 ----------------------------------------

 sin saber si te llevo o me dejo llevar
 ----------------------------------------
 ----------------3-3-3-3-----------------
 ----2-3-3-3-3-5-------------------------
 --5-------------------------------------
 ----------------------------------------
 ----------------------------------------

 no es tiempo de verdad
 ----------------------------------------
 --3-3--4--------------------------------
 ---------5--3-5-------------------------
 ----------------------------------------
 ----------------------------------------
 ----------------------------------------

 tiempo de vals tiempo para abrazar
 ----------------------------------------
 --6-6-6-6-4-3-4-4-4-4-------------------
 ----------------------------------------
 ----------------------------------------
 ----------------------------------------
 ----------------------------------------
 la pasion q prefieres y hacerla girar
 ----------------------------------------
 ----3-4-4-4-4-3-------------------------
 --5-------------5-5-3-5-3---------------
 ----------------------------------------
 ----------------------------------------
 ----------------------------------------

 y elevarse violenta como un huracan
 ----------------------------------------
 ----------------3-3-3-3-----------------
 ----2-3-3-3-3-5-------------------------
 --5-------------------------------------
 ----------------------------------------
 ----------------------------------------
 es tiempo en espiral
 ----------------------------------------
 --3-3--4--------------------------------
 ---------5--3-5-------------------------
 ----------------------------------------
 ----------------------------------------
 ----------------------------------------

 besame un tiempo de vals 1 2 3 1 2 3 sin dejar de bailar
 -----------------------------------------------
 --6-6-6-4---4-6--6-6-6-4---4-6--6-6-6-4---4----
 ----------6--------------6--------------6---5--
 -----------------------------------------------
 -----------------------------------------------
 -----------------------------------------------

 has q este tiempo de vals 1 2 3 1 2 3 no termine jamas
 ------------------------------------------------
 --6-6-6-7-6-4--------4---4-6--6-6-6-4---4-------
 --------------6--6-6---6--------------6---5-----
 ------------------------------------------------
 ------------------------------------------------
 ------------------------------------------------

 solo

 ----------------------------------------
 --6-6-6-6-4-3-4-4-4-4-------------------
 ----------------------------------------
 ----------------------------------------
 ----------------------------------------
 ----------------------------------------

 ----------------------------------------
 ----3-4-4-4-4-3-------------------------
 --5-------------5-5-3-5-3---------------
 ----------------------------------------
 ----------------------------------------
 ----------------------------------------


 ----------------------------------------
 ----------------3-3-3-3-----------------
 ----2-3-3-3-3-5-------------------------
 --5-------------------------------------
 ----------------------------------------
 ----------------------------------------


 ----------------------------------------
 --3-4--3-6-4-3--------------------------
 ---------------5-3----------------------
 ----------------------------------------
 ----------------------------------------
 ----------------------------------------

 besame un tiempo de vals 1 2 3 1 2 3 sin dejar de bailar
 -----------------------------------------------
 --6-6-6-4---4-6--6-6-6-4---4-6--6-6-6-4---4----
 ----------6--------------6--------------6---5--
 -----------------------------------------------
 -----------------------------------------------
 -----------------------------------------------

 has q este tiempo de vals 1 2 3 1 2 3 no termine jamas
 ------------------------------------------------
 --6-6-6-7-6-4--------4---4-6--6-6-6-4---4-------
 --------------6--6-6---6--------------6---5-----
 ------------------------------------------------
 ------------------------------------------------
 ------------------------------------------------

 tiempo de vals q empleamos los dos
 ----------------------------------------
 --6-6-6-6-4-3-4-4-4-4-------------------
 ----------------------------------------
 ----------------------------------------
 ----------------------------------------
 ----------------------------------------

 dibujando en el suelo de un viejo salon
 ----------------------------------------
 ----3-4-4-4-4-3-------------------------
 --5-------------5-5-3-5-3---------------
 ----------------------------------------
 ----------------------------------------
 ----------------------------------------

 con 3 pasos  este baile y una historia de amor
 ----------------------------------------
 ----------------3-3-3-3-----------------
 ----2-3-3-3-3-5-------------------------
 --5-------------------------------------
 ----------------------------------------
 ----------------------------------------

 es tiempo y es el fin
 ----------------------------------------
 --3-3--4--------------------------------
 ---------5--3-5-------------------------
 ----------------------------------------
 ----------------------------------------
 ----------------------------------------

 y tiempo para ti
 ----------------------------------------
 --3-3--4--------------------------------
 ---------5--3---------------------------
 --------------8-------------------------
 ----------------------------------------
 ----------------------------------------


Que te parecio? Calificalo con estrellas!!

Rating: 6.3/10 (78 votos)

Este fichero es trabajo propio de su transcriptor y representa su interpretación personal de la canción. El material contenido en esta página es para exclusivo uso privado, por lo que se prohibe su reproducción o retransmisión, así como su uso para fines comerciales.


Comentario de ironxlady
www.lacuerda.net
Deja tus comentarios:

Letras de Chayanne
Letras de canciones | Musica Independiente