Acordes y tablaturas para guitarra

Acordes y Tablaturas
Usuario: Password:

Buscar:
Acordes y Tablaturas >> Letra C >> Acordes de Cafe tacuba >> Esta vez
Tablatura de Esta vez, Cafe tacuba

Esta vez

Cafe tacuba






Acordes:

       E a d g b e                E a d g b e
       -----------                -----------
   Am  0 0 2 2 1 0             C  3 3 2 0 1 0

 Am/G  3 0 2 2 1 0            E7  0 2 0 1 0 0

Am/F#  2 0 2 2 1 0         E7sus  0 2 0 2 0 0

 Am/F  1 0 2 2 1 0            B°  x 2 3 2 3 x

   Dm  x 0 0 2 3 1          B°/F  1 0 3 2 3 0

    G  3 2 0 0 0 3



Intro (Guitarra y Teclado):


    Am         Am/G        Am/F         Dm
e|-----------------------------------------------1-|Guitarra
b|-----------1-----------1-----------1--3-----3----|Guitarra
g|--2-----2-----------2-----------2--------2-------|Guitarra
d|-----2-----------2-----------2--------0----------|Guitarra
a|--0----------------------------------------------|Guitarra
E|--------------3-----------1----------------------|Guitarra


e|----12----------12----------------13-------------|Teclado
b|-------13----------13----------13----------------|Teclado
g|-14-------14-12-------12----14-------------14----|Teclado
d|-------------------------15----------12-15----15-|Teclado



    G                       C           E7
e|-------------------------------------------------|Guitarra
b|-----------0-----------0-----------1-----------0-|Guitarra
g|--------0-----------0-----------0-----------1----|Guitarra
d|-----0-----------0-----------2-----------0-------|Guitarra
a|--------------2-----------3----------------------|Guitarra
E|--3-----------------------------------0----------|Guitarra


e|-------------15-------15-12----15-12-------------|Teclado
b|----12-15-12----12-15-------13-------------12-15-|Teclado
g|-12-------------------------------------13-------|Teclado
d|-------------------------------------14----------|Teclado



    Am         Am/G         Dm         B°/F
e|-----------------------------------1-------------|Guitarra
b|-----------1-----------1--3-----3--------------3-|Guitarra
g|--2-----2-----------2--------2--------------2----|Guitarra
d|-----2-----------2--------0--------------3-------|Guitarra
a|--0----------------------------------------------|Guitarra
E|--------------3-----------------------1----------|Guitarra


e|----12----------12-------------------10-------10-|Teclado
b|-------13----------13----------10----------10----|Teclado
g|-14-------14-12-------12----10----10----10-------|Teclado
d|-------------------------12----------------------|Teclado



    B°                      E7
e|--------------------------------------0-|Guitarra
b|-----------3-----------3-----------0----|Guitarra
g|--4-----2-----4-----2-----------1-------|Guitarra
d|-----3-----------3-----------0----------|Guitarra
a|--2-----------2-------------------------|Guitarra
E|--------------------------0-------------|Guitarra


e|-------13----17----13---------------12-|Teclado
b|----15----15----15----15-------12------|Teclado
g|-16-------------------------13---13----|Teclado
d|-------------------------14------------|Teclado



Am          Am/G          Am/F        Dm
   De pronto ya no sé qué pasa en mí,
G                            C    E7
   de pronto ya no sé quién soy,
Am          Am/G       Dm    B°/F
   de pronto ya no reconozco nada
   B°                E7
   de lo que un día fuí.

Am          Am/G          Am/F          Dm
   Hoy me pregunto qué cambió dentro de mí,
G                           C    E7
   hoy me pregunto a dónde voy,
Am            Am/G           Dm      B°/F
   tal vez no existen las respuestas para
   B°                  E7
   lo que intento resolver.

   Dm          E7             Am
   Esta vez vengo buscando el corazón,
   Dm             E7           Am   A7
   Esta vez lo intentaré otra vez,
   Dm         E7          Am            Am/F#
   Esta vez y más yo trataré de hacerlo bien,
          F
   si la vida me regala
E7sus   E7
   otra oportunidad.


   Am         Am/G        Am/F         Dm
e|----12----------12----------------13----------10-|Teclado
b|-------13----------13----------13----------10----|Teclado
g|-14-------14-12-------12----14----------10-------|Teclado
d|-------------------------15----------12----------|Teclado


   G                       C           E7
e|-------------15-------15-12----12-15-------------|Teclado
b|----12-15-12----12-15-------13-------------12-15-|Teclado
g|-12-------------------------------------13-------|Teclado
d|-------------------------------------14----------|Teclado


   Am         Am/G         Dm         B°/F
e|----12----------12-------------------10-------10-|Teclado
b|-------13----------13----------10----------10----|Teclado
g|-14-------14-12-------12----10----10----10-------|Teclado
d|-------------------------12----------------------|Teclado


   B°                      E7
e|-------13----17----13---------------12---------12-|Teclado
b|----15----15----15----15-------12-----------12----|Teclado
g|-16-------------------------13---13-------13------|Teclado
d|-------------------------14------------14---------|Teclado


Am          Am/G          Am/F        Dm
   De pronto ya no sé qué pasa en mí,
G                            C    E7
   de pronto ya no sé quién soy,
Am            Am/G           Dm      B°/F
   tal vez no existan las respuestas para
   B°                  E7
   lo que intento resolver,


  Esta vez no quiero otra ilusión,
e|----------10-------------------12----17----12-17-|Teclado
b|-------10----------12-15----13----13----13-------|Teclado
g|----10----------13-------14----------------------|Teclado
d|-12----------14----------------------------------|Teclado

  esta vez lo intentaré otra vez,
e|----------10-------------------12-18-17-15-13-12-|Teclado
b|-------10----------12-15----13-------------------|Teclado
g|----10----------13-------14----------------------|Teclado
d|-12----------14----------------------------------|Teclado

  esta vez y más yo trataré de hacerte bien,
e|----------13----------13-12-10----------12-------|Teclado
b|-------10----------12----------13-12-------13----|Teclado
g|----10----------13-------------------11-------11-|Teclado
d|-12----------14----------------------------------|Teclado

  si la vida me regala
e|-------8----13-------8---|Teclado
b|----10---10-------10-----|Teclado
g|-10------------10------9-|Teclado
d|-------------------------|Teclado

  otra oportunidad.


Final:

Am - Am/G - Am/F# - F - E7  (6 Veces)

C - G - C - G - C - G - E7  (2 Veces)

C  (Rasgueo Final)


Que te parecio? Calificalo con estrellas!!

Rating: 6.2/10 (49 votos)

Este fichero es trabajo propio de su transcriptor y representa su interpretación personal de la canción. El material contenido en esta página es para exclusivo uso privado, por lo que se prohibe su reproducción o retransmisión, así como su uso para fines comerciales.


Comentario de Elfenlied
pues esta rola ta chida k la disfruten cuidence ya se la saben si kieren alguna tab en especial abisenme sale cuidence
Deja tus comentarios:

Letras de Cafe tacuba
Letras de canciones | Musica Independiente