Enviado por:
Solounpoco

No Te Va A Gustar, La Unica Voz

 Inro

e|-----------------------------------------------------------------------
b|-------------------------------------5---------------------------------
g|-----------------------------------------------------------------------
D|----[-3h5-----------5-5-4-3]-----3/5--------[-3h5----------55-4-3]-----
A|----[5---3-55-----5--------]----------------[5---3-55-----5------]-----
E|-----------------------------------------------------------------------
[en las partes entre paréntesis hay qe mutear las cuerdas]

e|--------5---5--||
b|---------------||
g|----3/5---5----||
D|---------------||
A|---------------||
E|---------------||

--------------------------------------------------------------------------


Y aca va el solo...ahh y no le puse los tiempos...asiqe escuchenla bien


|-------------------------------------------------------------------------
|-------------------------------------------------------------------------
|-----------5--------------------------3------------------3---------------
|--5^-5^--3-----5^po3h5---5-------5------2-3-3/5--5-5-5-5-----------------
|--5^-5^--------------------3-4-3---------------------------4/6-4-4-4-3—3h
|-------------------------------------------------------------------------

-------------------------------------------------------------------
-------------------------------------------------------------------
----------4-----------------------------------------------------7--
-----5-3-----3-5^-------5^----------5^po3h5----7---7---------------
4po3---------------------------------------------6---6h8---8po6----
-------------------6--------6--------------------------------------

|-------------------------------------------------------------------------
|-------------------------------------------------------------------------
|-------------------------------------------------------------------------
|-/11---/12---/14---------/11---/12---/14---------------------------------
|-------------------------------------------------------------------------
|----10----12----14----------10----12----14---------15--------------------
                                                Y no me olvido de tus...


Aqui los acordes

Gm                                  Cm
Algunos siguen dudando si existe el amor
      F                          Bb
Y se siguen preguntando a donde llega la razón
      Gm                              Cm          D                        Gm
Pero yo no me olvido de todo lo que me diste te lo digo con una mano en el corazón

Gm                              Cm
Que no es fácil poder hacer, el bien sin mirar a quien
         F                            Bb
Que nos falta por todos lados, como salimos esta vez
         Gm                     Cm           D                              Gm
No necesitamos nada de lo que perdimos, pero no teníamos nada pero nada que ver

Cm                Gm     F                             Cm
Solo confío en su voz ....ahhh..... solo le creo a esa única voz....
Eb                   Gm                           F                D
porque te ganaste el cielo......y nos cubriste a los dos ....a los dos

Gm                                       Cm
Y no me olvido de tus caricias y no me olvido de tu dolor
        F                                  Bb
Que pensaste en nosotros primero, no te acordaste solo de vos
          Gm                          Cm
Para que hubiera para almorzar y que tuviéramos en que soñar
       D                              Gm
No lo dudes de todo eso no me voy a olvidar

Cm                 Gm        F
Solo confío en su voz........

Gm
Y no me olvido de tus caricias.........

Cm                 Gm      F
Solo confío en su voz......


 
Aviso: Este fichero es trabajo propio de su transcriptor y representa su interpretación personal de la canción. El material contenido en esta página es para exclusivo uso privado, por lo que se prohibe su reproducción o retransmisión, así como su uso para fines comerciales.
comentario del colaborador: Lo saque de WWW.LACUERDA.NET Chauu

Califica esta canción


Comentarios en Facebook