Enviado por: senekoyfedu
Agrandar Letra
Reducir Letra
Imprimir


Otras Versiones de detroit rock city:




Kiss, detroit rock city

esta les hacia falta fuckers  no me pregunten porke yo no la saque  parece ke esta bien yo no me la se alla ustedes

y arriba sinaloa viva mexicoo

 el Intro

--------------------------------------
--------------------------------------
--------------------------------------
--------------------------------------
-4-2-4-2-4-2-4-2-4-2-4-2-4-4-4-4--
--------------------------------------

--------------------------------------
--------------------------------------
-----2---------4------------------------
-----2---------4------------------------
-----0---------2------------------------
-0-------0------------------------------

Verses

--------------------------------------
--------------------------------------
-6----9-----4------11--------------
-6----9-----4------11--------------
-4----7-----2------9----------------
--------------------------------------

--------------------------------------
--------------------------------------
-----2---------4------------------------
-----2---------4------------------------
-----0---------2------------------------
-0-------0------------------------------

Interlude 1

--------------------------------------
--------------------------------------
--------------------------------------
--------------------------------------
--------------------------------------
-4--4--2--------2---4-------------
--------------4----------------------

--------------------------------------
--------------------------------------
--------------------------------------
---------------2-------------------2----
--4--2---4--------4-------------------4----
--------------------------2---4---------

--------------------------------------
--------------------------------------
-----2---------4------------------------
-----2---------4------------------------
-----0---------2------------------------
-0-------0------------------------------

Interlude 2

--------------------------------------
--------------------------------------
--------------------------------------
--------------------------------------
--------------------------------------
-4--4--2--------2---4-------------
--------------4----------------------

--------------------------------------
--------------------------------------
--------------------------------------
---------------2-------------------2----
--4--2---4--------4-------------------4----
--------------------------2---4---------


----------------------
----------------------
----------------------
----------------------
-4---4---2------2---4--
--------------4--------

-------------------------
-------------------------
-------------------------
---------------2--------
--4--2---4--------4---
-------------------------

--------------------------------------
--------------------------------------
--------------------------------------
-----------------------repeat above section--
--4-4--4-4-x-4------------------------------
--------------------------------------

--------------------------------------
--------------------------------------
--------------------------------------
------------------------------4--------
--6-6-4----4-6-----6-4-6---6------
----------6----------------------------

--------------------------------------
--------------------------------------
--------------------------------------
--------4--------------------4----------
------------6-----6--4--6-----6------
--4-6-----------------------------------

--------------------------------------
--------------------------------------
--------------------------------------
---------2-----------------------------
-------------4-------------------------
--2--4----------------------------------

--------------------------------------
--------------------------------------
-----2---------4------------------------
-----2---------4------------------------
-----0---------2------------------------
-0-------0------------------------------

Solo

----------11--9--12--11--------12--11-----
-9--12----------------------14-------------14-12
--------------------------------------
--------------------------------------
--------------------------------------
--------------------------------------

------11--12--11-----------------------
-12------------------12--10--9--10--
--------------------------------------
--------------------------------------
--------------------------------------
--------------------------------------

-9--7-------9--7-----------------------
--------10---------10--9-----------
--------------------------------------
--------------------------------------
--------------------------------------
--------------------------------------

----------11--9--12--11--------12--11--
-9--12----------------------14-------------
--------------------------------------
--------------------------------------
--------------------------------------
--------------------------------------

-----------------11--12--11-----------------
-14--12--12-----------------12--10--9--10-
--------------------------------------
--------------------------------------
--------------------------------------
--------------------------------------

------8--9--9-9-9-9-9----9------------
--9-----------------------9----9-7--------
--------------------------------------9
--------------------------------------
--------------------------------------
--------------------------------------

--------------------------------------
-9-7------7-9-7-----------------9--7---
------9-8---------9-8-9/11/9--------9-8-9-
--------------------------------------
--------------------------------------
--------------------------------------

----9--7h9p7------------------------
-9----------------9--7------9--7-----
--------------------------9------------
--------------------------------------
--------------------------------------
--------------------------------------

------------------------------------11--9
----9-7----------7--9--7---------------
-9--------9--8-------------9--8---------
--------------------------------------
--------------------------------------
--------------------------------------

Outro

--------------------------------------
--------------------------------------
--8/9/8----6/4/6-----------------
--------------------------------------
--------------------------------------
--------------------------------------
te amo dulce maria!!!
Aviso: Este fichero es trabajo propio de su transcriptor y representa su interpretación personal de la canción. El material contenido en esta página es para exclusivo uso privado, por lo que se prohibe su reproducción o retransmisión, así como su uso para fines comerciales.

Califica esta canción


Comentarios en Facebook