Acordes y tablaturas para guitarra

Acordes y Tablaturas
Usuario: Password:

Buscar:
Acordes y Tablaturas >> Letra G >> Acordes de Guns N´ Roses >> Aint It Fun
Tablatura de Aint It Fun, Guns N´ Roses

Aint It Fun

Guns N´ Roses






Intro:
|------------------------|----------------5--7-5-7b^^|
|------------------------|-3-5-3-5b-5b---------------|
|----------------2-4^^^^-|---------------------------|
|------------2-4---------|---------------------------|
|--2---2-4-5-------------|---------------------------|
|------------------------|---------------------------|

|-7-10/12-12b-12b-10fb-r-10-|-7qb-------|
|---------------------------|-----12-10-|
|---------------------------|-----------|
|---------------------------|-----------|
|---------------------------|-----------|
|---------------------------|-----------|

|--------------------------------------|--------------------------|
|-10b-7-7-10-7-10b-r--7----------------|--------------------------|
|-----------------------9-9b-7-9-7-----|---7-9-7-9b-(9)-r-9b--797-|
|----------------------------------7-9-|-9------------------------|
|--------------------------------------|--------------------------|
|--------------------------------------|--------------------------|

|-----------------------|-------7------------------------|
|-----------------------|---------10---------------------|
|-9-7-9b-9b-p7-9-7b-----|-7-9fb------r-9-7b-----7-9-7-9b-|
|-------------------9-9-|-------------------9-9----------|
|-----------------------|--------------------------------|
|-----------------------|--------------------------------|

|----------------|-----------------------------|
|-7-10-7---------|--------12-12----------------|
|--------9-7-9---|-7-9-9b-------9-9b-p7--9-9-7-|
|--------------9-|-----------------------------|
|----------------|-----------------------------|
|----------------|-----------------------------|

|------------------------------|
|----------9-------------------|
|-9-7-9-9b---9r----7-9-7-9-7---|
|----------------------------9-|
|------------------------------|
|------------------------------|


Ain't it fun when you're always on the run?
|-------------|                      
|-x-x---------|
|-x-x---------|
|-x-x-7-9-7-9-|
|-----7-9-7-9-|
|-------------|

Ain't it fun when your friends despise what you've become?
|---------------|
|---------------|
|-----------7^--|
|-x-x-9-7-9-7^--|
|-----9-7-9-----|
|---------------|

Ain't it fun when you get so high... that you just can't come?
|---------|
|---------|
|-7-------|
|---7-9^--|
|---------|
|---------|


Ain't it fun when you know that you gonna die young?
|---------------|
|---------------|
|---------------|
|---------------| Riff 1
|-9/7/9/7/9/7/9-|   
|-7/5/7/5/7/5/7-|

 Riff 2:
|----------------------------------------------------------------|
|*--------------------------------------------------------------*|
|----------------------------------------------------------------|
|--5---5-5---5-5-5---7---7-7---7-7-7----9--7---9-7-9---9--7--9---|  
|*-5---5-5---5-5-5---7---7-7---7-7-7----9--7---9-7-9---9--7--9--*|
|--3---3-3---3-3-3---5---5-5---5-5-5----7--5---7-5-7---7--5--7---|

             Such Fun! (10 times)
|--------------|---------|
|---10---------|---------|
|--9b----7-9-7-|-9-7-----|
|-9^-----------|-----9-9-|
|--------------|---------|
|--------------|---------|
      
Ain't it fun when you're taking care of number one?
|---------------|
|---------------|
|-*-7-9-7-9b----|
|-*----------9^-|
|---------------|
|---------------|

Ain't it fun when you feel like you just gotta get a gun?
|--------------------|
|-------------10-12^-|
|-7-9-11-7-11--------|
|--------------------|
|--------------------|
|--------------------|

Ain't it fun when you just can't seem to find your tongue?
|-10-------|
|----10h12-|
|----------|
|----------|
|----------|
|----------|

Cause you stuck it too deep into something that really stung
|-14-14p12p10-7-|
|---------------|
|---------------|
|---------------|
|---------------|
|---------------|
 
It's such fun!



 Riff 3:
|------------------------------------------------------------------|
|------------------------------------------------------------------|
|------------------------------------------------------------------|
|-5--5-5--5-5-5--7--7-7--7-7-7--12--12-12--12-12-12--9--9-9--9-9-9-|
|-5--5-5--5-5-5--7--7-7--7-7-7--12--12-12--12-12-12--9--9-9--9-9-9-|
|-3--3-3--3-3-3--5--5-5--5-5-5--10--10-10--10-10-10--7--7-7--7-7-7-|

Well, so you come up to me to spit right in my face, 
I didn't even feel it, it was such a disgrace

I punched my fist right through the glass
I didn't even feel it, it happened so fast!



       Play that 4
         times
      |            |
|-12b--(12)-(12)-(12)---(12)-12r-----------------|
|--------------------------------15-15b-b--12-12-|
|------------------------------------------------|
|------------------------------------------------|
|------------------------------------------------|
|------------------------------------------------|

|-------14-17b-14-17-----|----------------------------------|
|-12-15--------------17b-|17-15-15p14-15p14---12-14b-p12-12-|   
|------------------------|----------------------------------|  
|------------------------|----------------------------------|
|------------------------|----------------------------------|
|------------------------|----------------------------------|                   

Ain't it fun when you tell her she's just a cunt?
|-7---------------------7-|
|---10-7---------7-10-7---|
|--------9-9-9b-----------|
|-------------------------|
|-------------------------|
|-------------------------|

Ain't it fun when she splits you and leaves you on the run?
|------7-9-7--------------|
|-7-10-------10-12--12b---|
|-------------------------|
|-------------------------|
|-------------------------|
|-------------------------|

Well, Ain't it fun when you've broken up every band 
that you ever begun?
|-------------------------------------|
|-------------------------------------|
|-7-9b-7---7--------------------------|
|--------9---9--9-11-9-11-9-7h9-7-9-7-|
|-------------------------------------|
|-------------------------------------|

    Ain't it fun when you know that you're gonna die young?
|----------------------------------------------|
|----------------------------------------------|
|----------------------------------------------|
|-11-9-11b---11-9-11b---11-9-11-9-7-9- then?---|
|----------------------------------------------|
|----------------------------------------------|

It's such fun!


     

and then come two guitars: 
|-------------------------|
|-12^^^^^^^^^^^^^^^^^^^^^-|
|--------------11^^^^^^^^-|
|-------------------------|
|-------------------------|
|-------------------------|

Finish:
|----------10-9-----------------------------------------|
|----10-12------12-10---------------------------12------|
|-11------------------11---7-9-7----------------11------|
|--------------------------------9-7-9-7--------9-------|
|----------------------------------------9-7------------|
|-------------------------------------------------------|


Que te parecio? Calificalo con estrellas!!

Rating: 8.1/10 (89 votos)

Este fichero es trabajo propio de su transcriptor y representa su interpretación personal de la canción. El material contenido en esta página es para exclusivo uso privado, por lo que se prohibe su reproducción o retransmisión, así como su uso para fines comerciales.


Deja tus comentarios:

Letras de Guns N´ Roses
Letras de canciones | Musica Independiente