Acordes y tablaturas para guitarra

Acordes y Tablaturas
Usuario: Password:

Buscar:
Acordes y Tablaturas >> Letra L >> Acordes de Los Angeles Azules >> Como te voy a olvidar
Tablatura de Como te voy a olvidar, Los Angeles Azules

Como te voy a olvidar

Los Angeles Azules






Una gran cancion jejeje!!!! es muy chida cualquier cosa maiden_dx94


INTRO

Bm
e---------7-5-4--------------7-5-4-------
B-------7------7-----------7-------7-----
G---4-7---------7-4----4-7-----------7-4-
D----------------------------------------
A----------------------------------------
E----------------------------------------

D                      Bm                   G           A  G           A
e--------------------------------------------------------------------------
B----------------------777-5-7---77-5-7-----8-8-8-8-5-3-2--8-8-8-8-5-3-2--
G-777-6-7---77-6-7-------------6--------6----------------------------------
D---------7--------7-------------------------------------------------------
A--------------------------------------------------------------------------
E--------------------------------------------------------------------------



D                 Bm
Amor, amor, amor, Amor, amor, amor,
   G                               A
quiero que me vuelvan a mirar tus ojos
D                 Bm
Amor, amor, amor, Amor, amor, amor,
   G                                      A
quiero que me vuelvan a besar tus labios rojos

D
como olvidarme de ti,
 Bm
de que manera olvidarte?
  G                     A
si todo me recuerda a ti,
  G                     A
si en todas partes estas tu

 D
Si en una rosa estas tu
Bm
si en cada respirar estas tu
 G               A        G                A
como te voy a olvidar?, como te voy a olvidar?
  D
si besando la cruz estas tu
 Bm
rezando una oracion estas tu
 G               A        G                A
como te voy a olvidar?, como te voy a olvidar?



   D                     Bm
Si te clavaste aqui en mi corazón
    G                    A
y de amor has llenado mi alma
    D                     Bm
y tu sangre corre por mis venas
     G                       A             D
y mi sangre me hace estremecer.....


Que te parecio? Calificalo con estrellas!!

Rating: 7.0/10 (68 votos)

Este fichero es trabajo propio de su transcriptor y representa su interpretación personal de la canción. El material contenido en esta página es para exclusivo uso privado, por lo que se prohibe su reproducción o retransmisión, así como su uso para fines comerciales.


Deja tus comentarios:
Letras de canciones | Musica Independiente