Enviado por:
tapitipi

The Beatles, I Want To Hold Your Hand

1 verso
G |- - - - - - - - - - - - - - - - - - - - - - - - - - - - - - - - - - - - - - - - - - - - - - - - - - - - - - - - - - - - - - - - - - - -
D |- - - - - - - - - - - - - - - - - - - - - - - - - - - - - - - - - - - - - - - - - - - - - - - - - - - - - - - - - - - - - - - - - - - -
A |- -3-4-5 -55555 - - - - -3-4-5 -55555 - - - - - --3-4-5 -555555555 - - - - - - - - - - - - - - - - - - - - - 
E |- - - - - - - - - - - - - - - - - - - - - - - - - - - - - - - - - - - - - - - - - - - - - - - - - - - - - - - - - - - - - - - - - - - -

G |- - - - - - - - - - - - - - - - - - - - - - - - - - - - - - - - - - - - - - - - - - - - - - - - - - - - - - - - - - - - - - - - - - - -
D |- - 5 - --5-5-- - - - - - - - - - - - - - - - - - - - - - - - - - - - - - - - - - - - - - - - - - - - - - - - - - - - - - - - - - - - 
A |- - - - - - - - - -5-- - 5-5-4-5 6-7 - - - 7-7- - - 2- - - 2-2 - - - - - - - - - - - - - - - - - - - - - - - - - - - - - - - 
E |- - - - - - - - - - - - - - - - - - - - - - - - - - - - - - - - - - - - - - - - - - - - - - - - - - - - - - - - - - - - - - - - - - - -

G |- - - - - - - - - - - - - - - - - - - - - - - - - - - - - - - - - - - - - - - - - - - - - - - - - - - - - - - - - - - - - - - - - - - -
D |- - 5 - --5-5-- - - - - - - - - - - - - - - - - - - - - - - - - - - - - - - - - - - - - - - - - - - - - - - - - - - - - - - - - - - - 
A |- - - - - - - - - -5-- - 5-5-4-5 6-7 - - - 7-7- - - 2- 2-222222222 - - - - - - - - - - - - - - - - - - - - - - - - - 
E |- - - - - - - - - - - - - - - - - - - - - - - - - - - - - - - - - - - - - - - - - - - - - - - - - - - - - - - - - - - - - - - - - - - -

Refrão:
G |- - - - - - - - - - - - - - - - - - - - - - - - - - - - - - - - - - - - - - - - - - - - - - - - - - - - - - - - - - - - - - - - - - - -
D |- - - - - - - - - - - - - - 5- - -5 - - -2 - - - - - - - - - - - - - - - - -5 - - 5- 5555- - - - - - - - - - - - - - - - - - - 
A |- - - -3 - - 3-5 - 5- - - - - - - - - - - - - - - -3- - -3- 5 - - -5 - - - - - - - - - - - - - - - - - - - - - - - - - - - - - - 
E |- - - - - - - - - - - - - - - - - - - - - - - - - - - - - - - - - - - - - - - - - - - - - - - - - - - - - - - - - - - - - - - - - - - 

2 Verso
G |- - - - - - - - - - - - - - - - - - - - - - - - - - - - - - - - - - - - - - - - - - - - - - - - - - - - - - - - - - - - - - - - - - - -
D |- - 5 - --5-5-- - - - - - - - - - - - - - - - - - - - - - - - - - - - - - - - - - - - - - - - - - - - - - - - - - - - - - - - - - - - 
A |- - - - - - - - - -5-- - 5-5-4-5 6-7 - - - 7-7- - - 2- - - 2-2 - - - - - - - - - - - - - - - - - - - - - - - - - - - - - - - 
E |- - - - - - - - - - - - - - - - - - - - - - - - - - - - - - - - - - - - - - - - - - - - - - - - - - - - - - - - - - - - - - - - - - - -

G |- - - - - - - - - - - - - - - - - - - - - - - - - - - - - - - - - - - - - - - - - - - - - - - - - - - - - - - - - - - - - - - - - - - -
D |- - 5 - --5-5-- - - - - - - - - - - - - - - - - - - - - - - - - - - - - - - - - - - - - - - - - - - - - - - - - - - - - - - - - - - - 
A |- - - - - - - - - -5-- - 5-5-4-5 6-7 - - - 7-7- - - 2- 2-222222222 - - - - - - - - - - - - - - - - - - - - - - - - - 
E |- - - - - - - - - - - - - - - - - - - - - - - - - - - - - - - - - - - - - - - - - - - - - - - - - - - - - - - - - - - - - - - - - - - -

Refrão

G |- - - - - - - - - - - - - - - - - - - - - - - - - - - - - - - - - - - - - - - - - - - - - - - - - - - - - - - - - - - - - - - - - - - -
D |- - - - - - - - - - - - - - - - - - - - - - - - - - - - - - - - - - - - - - - - - - - - - - - - - - - - - - - - - - - - - - - - - - - -
A |- - 5- - -55 - - - - - - - - - - - -3 - -33 - - - - - - - - - - - - -5 - - 55- - - - - - - - - - - - - - - - - - - - - - - - - - 
E |- - - - - - - - - - -3 - -33 - - - - - - - - - - - - -5 - -55 - - - - - - - - - - - - 3- -33 - - - - - - - - - - - - - - - - - - 


G |- - - - - - - - - - - - - - - - - - - - - - - - - - - - - - - - - - - - - - - - - - - - - - - - - - - - - - - - - - - - - - - - - - - -
D |- - - - - - - - - - - - - - - - - - - - - - - - - - - - - - - - - - - - - - - - - - - - - - - - - - - - - - - - - - - - - - - - - - - -
A |- - - 3- -333455555 - 3455555- - 34555555555- - - - - - - - - - - - - - - - - - - - - - - - - - - - - - - - - - 
E |- - - - - - - - - - - - - - - - - - - - - - - - - - - - - - - - - - - - - - - - - - - - - - - - - - - - - - - - - - - - - - - - - - - -


G |- - - - - - - - - - - - - - - - - - - - - - - - - - - - - - - - - - - - - - - - - - - - - - - - - - - - - - - - - - - - - - - - - - - -
D |- - 5 - --5-5-- - - - - - - - - - - - - - - - - - - - - - - - - - - - - - - - - - - - - - - - - - - - - - - - - - - - - - - - - - - - 
A |- - - - - - - - - -5-- - 5-5-4-5 6-7 - - - 7-7- - - 2- - - 2-2 - - - - - - - - - - - - - - - - - - - - - - - - - - - - - - - 
E |- - - - - - - - - - - - - - - - - - - - - - - - - - - - - - - - - - - - - - - - - - - - - - - - - - - - - - - - - - - - - - - - - - - -

G |- - - - - - - - - - - - - - - - - - - - - - - - - - - - - - - - - - - - - - - - - - - - - - - - - - - - - - - - - - - - - - - - - - - -
D |- - 5 - --5-5-- - - - - - - - - - - - - - - - - - - - - - - - - - - - - - - - - - - - - - - - - - - - - - - - - - - - - - - - - - - - 
A |- - - - - - - - - -5-- - 5-5-4-5 6-7 - - - 7-7- - - 2- 2-222222222 - - - - - - - - - - - - - - - - - - - - - - - - - 
E |- - - - - - - - - - - - - - - - - - - - - - - - - - - - - - - - - - - - - - - - - - - - - - - - - - - - - - - - - - - - - - - - - - - -

Refrão:
G |- - - - - - - - - - - - - - - - - - - - - - - - - - - - - - - - - - - - - - - - - - - - - - - - - - - - - - - - - - - - - - - - - - - -
D |- - - - - - - - - - - - - - 5- - -2 - - - - - - - - - - - - - - - - - - - - - - - - - - - - - - - - - -- - - - - - - - - - - - - - 
A |- - - -3 - - 3-5 - 5- - - - - - - - - - - - - - - -3- - -3- 5 - - -5 - 222222- - - - - - - - - - - - - - - - - - - - - - - 
E |- - - - - - - - - - - - - - - - - - - - - - - - - - - - - - - - - - - - - - - - - - - - - - - - - - - - - - - - - - - - - - - - - - - 


G |- - - - - - - - - - - - - - - - - - - - - - - - - - - - - - - - - - - - - - - - - - - - - - - - - - - - - - - - - - - - - - - - - - - -
D |- - - - - - - - - - - - - - - - - 2- - 5 - - - - - -2 - 5- 5- - - - - - - - - - - - - - - - - - - - - - - - - - - - - - - - - - - - 
A |- - -3 - - 3- 5- -5 - - -3 - - - - - - - - -3 - - - - - - - - - - - - - - - - - - - - - - - - - - - - - - - - - - - - - - - - - - - 
E |- - - - - - - - - - - - - - - - - - - - - - - - - - - - - - - - - - - - - - - - - - - - - - - - - - - - - - - - - - - - - - - - - - - -
--------------------------------------------------------------------------------
Aviso: Este fichero es trabajo propio de su transcriptor y representa su interpretación personal de la canción. El material contenido en esta página es para exclusivo uso privado, por lo que se prohibe su reproducción o retransmisión, así como su uso para fines comerciales.

Califica esta canción


Comentarios en Facebook