Acordes y tablaturas para guitarra

Acordes y Tablaturas
Usuario: Password:

Buscar:
Acordes y Tablaturas >> Letra m >> Acordes de magnolia y los no me olvides >> 31 de febrero
Acordes de 31 de febrero, magnolia y los no me olvides

31 de febrero

Magnolia y los no me olvides






am.c.d.e.em.f.g.
 [primera guitarra]
      C             F            C              F
e|------------|------------|------------|---------------|
B|------------|------------|------------|--------1------|
G|---------0--|---------0--|---------0--|------2---2----|
D|--2----2----|--3----3----|--2----2----|----3-------3--|  x4
A|--3--3------|--3--3------|--3--3------|--3------------|
E|------------|------------|------------|---------------|


[entra segunda guitarra al 2do tiempo de la primera]
      C           D         E           G
e|----------|----------|----------|-------------|
B|----------|----------|----------|-------------|
G|--5--555--|--7--777--|--9--999--|--12--9--12--|
D|--x--xxx--|--x--xxx--|--x--xxx--|---x--x---x--|  2x
A|--3--333--|--5--555--|--7--777--|--10--7--10--|
E|----------|----------|----------|-------------|



[esta es la primer parte, asi va la mayoria de las estrofas]
        C              Am           Em             F
e|--------------|-------------|-------------|--------------|
B|--------------|-------------|-------------|--------------|
G|--------------|-------------|--0--0--0--0-|--2--2--2--2--|
D|---2--2--2--2-|--2--2--2--2-|-2--2--2--2--|-3--3--3--3---|
A|--3--3--3--3--|-0--0--0--0--|-------------|--------------|
E|--------------|-------------|-------------|--------------|

 tengo varias melodias que escribi
 ninguna habla sobre ti
 y no, no le cambiare la letra porque tu no estas
 y no, no me cansas tanto dolor y tristeza

 C     Am      Em     Am      F
sabes cuantas cartas te escribi
   C     Am    Em   Am       F
pero tu direccion yo ya perdi


      C                      Am
y evitar aquello que pudo pasar
                     F
asi no habra que olvidar
           G
solo imaginar
                C
alcanzare a cantar
                         Am
y chance alguien me escuchara
                    F                G
quisas solo un pajarillo fuera a cantar



se que te aburren mis ojos cafes
pero que le puedo hacer
ya se, usare esto es todo el tiempo
y si no, es suficiente me los arrancare

dime que tiene el que no tenga yo
ojos verdes y un gran corazon

y evitar aquello que pudo pasar
asi no habra que olvidar
solo imaginar
alcanzare a cantar
y chance alguien me escuchara
quisas solo un pajarillo fuera a cantar


yo tambien tengo un gran corazon
te lo daria pero egoista soy

y evitar aquello que pudo pasar
asi no habra que olvidar
solo imaginar
alcanzare a cantar
y chance alguien me escuchara
quisas solo un pajarillo fuera a cantar.
 

Que te parecio? Calificalo con estrellas!!

Rating: 7.2/10 (44 votos)

Este fichero es trabajo propio de su transcriptor y representa su interpretación personal de la canción. El material contenido en esta página es para exclusivo uso privado, por lo que se prohibe su reproducción o retransmisión, así como su uso para fines comerciales.


Deja tus comentarios:

Letras de magnolia y los no me olvides
Letras de canciones | Musica Independiente