Acordes y tablaturas para guitarra

Acordes y Tablaturas
Usuario: Password:

Buscar:
Acordes y Tablaturas >> Letra B >> Acordes de Blink-182 >> First Date
Tablatura de First Date, Blink-182

First Date

Blink-182






Riff 1
E-0-------------------------------------------------------
B---1-1-1-1-1-1-1—--3-1-1-1-1-1-1-1---3-1-1-1-1-1-1-1-----
G---------------------------------------------------------
D---------------------------------------------------------
A---------------------------------------------------------
E---------------------------------------------------------

E----------------------
B-3-1-1-1-0-0-1--------
G----------------------
D----------------------
A----------------------
E----------------------

Verse(Palm Muted)
E---------------------------------------------------------
B---------------------------------------------------------
G---5-5-----------------------------------------------------
D-5--------------------------------------------------------
A---------------------------------------------------------
E---------------------------------------------------------

Riff B
E---------------------------------------------------------
B---------------------------------------------------------
G-555-555-222222------------------------------------------
D-555-555-222222-33-55------------------------------------
A-333-222-000000-33-55------------------------------------
E----------------11-33------------------------------------

Riff C
E---------------------------------------------------------
B---------------------------------------------------------
G-5555-5555-2222------------------------------------------
D-5555-5555-2222-33-55------------------------------------
A-3333-2222-0000-33-55------------------------------------
E----------------11-33------------------------------------

Interlude Pt.1(Palm Mute)
E---------------------------------------------------------
B---------------------------------------------------------
G---------------------------------------------------------
D-55555555------------------------------------------------
A-33333333-22222222-33333333-55555555---------------------
E----------00000000-11111111-33333333---------------------

Interlude Pt.2
E---------------------------------------------------------
B---------------------------------------------------------
G-4444444-8888/44-9999/44-66666666/4----------------------
D-xxxxxxx-xxxx/xx-xxxx/xx-xxxxxxxx/x----------------------
A-2222222-6666/22-7777/22-44444444/2----------------------
E---------------------------------------------------------

Order:
Riff A x 2 
Verse  x 16
Riff B x 2
Riff C x 2
Riff A x 2
Verse  x 16
Riff B x 2
Riff C x 2
Interlude Pt.1 x 2
Interlude Pt.2 x 4
Riff B x 2
Riff C x 2
Riff A x 2

Riff 1
E-0-------------------------------------------------------
B---1-1-1-1-1-1-1—--3-1-1-1-1-1-1-1---3-1-1-1-1-1-1-1-----
G---------------------------------------------------------
D---------------------------------------------------------
A---------------------------------------------------------
E---------------------------------------------------------

E----------------------
B-3-1-1-1-0-0-1--------
G----------------------
D----------------------
A----------------------
E----------------------


Verse(Palm Muted)
E---------------------------------------------------------
B---------------------------------------------------------
G---5-5-----------------------------------------------------
D-5--------------------------------------------------------
A---------------------------------------------------------
E---------------------------------------------------------

Riff B
E---------------------------------------------------------
B---------------------------------------------------------
G-555-555-222222------------------------------------------
D-555-555-222222-33-55------------------------------------
A-333-222-000000-33-55------------------------------------
E----------------11-33------------------------------------

Riff C
E---------------------------------------------------------
B---------------------------------------------------------
G-5555-5555-2222------------------------------------------
D-5555-5555-2222-33-55------------------------------------
A-3333-2222-0000-33-55------------------------------------
E----------------11-33------------------------------------

Interlude Pt.1(Palm Mute)
E---------------------------------------------------------
B---------------------------------------------------------
G---------------------------------------------------------
D-55555555------------------------------------------------
A-33333333-22222222-33333333-55555555---------------------
E----------00000000-11111111-33333333---------------------

Interlude Pt.2
E---------------------------------------------------------
B---------------------------------------------------------
G-4444444-8888/44-9999/44-66666666/4----------------------
D-xxxxxxx-xxxx/xx-xxxx/xx-xxxxxxxx/x----------------------
A-2222222-6666/22-7777/22-44444444/2----------------------
E---------------------------------------------------------

Order:
Riff A x 2 
Verse  x 16
Riff B x 2
Riff C x 2
Riff A x 2
Verse  x 16
Riff B x 2
Riff C x 2
Interlude Pt.1 x 2
Interlude Pt.2 x 4
Riff B x 2
Riff C x 2
Riff A x 2


Que te parecio? Calificalo con estrellas!!

Rating: 6.8/10 (143 votos)

Este fichero es trabajo propio de su transcriptor y representa su interpretación personal de la canción. El material contenido en esta página es para exclusivo uso privado, por lo que se prohibe su reproducción o retransmisión, así como su uso para fines comerciales.


Deja tus comentarios:

Letras de Blink-182
Letras de canciones | Musica Independiente