Acordes y tablaturas para guitarra

Acordes y Tablaturas
Usuario: Password:

Buscar:
Acordes y Tablaturas >> Letra E >> Acordes de El Circulo >> Delfines en el mar
Acordes de Delfines en el mar, El Circulo

Delfines en el mar

El Circulo






c.d.dsus4.g.
 INTRO:

 E ----------------------------------------0---------------------
 B ------3---3---3---3-------3---3---3---3-------3---3---3---3---
 G ----2---2---2---2---2---2---2---2---2-------2---2---2---2---2-
 D --0-------------------0-------------------0-------------------
 A --------------------------------------------------------------
 E --------------------------------------------------------------

 E -----------3----3--3--2--2--0---
 B --------3-------3--3--3--3--1---
 G -----2----------2--2--2--2--0---
 D --0-------------0--0--0--0--2---
 A ----------------0-----------3---
 E ----------------0-----------0---


C         G            D
 Tu y yo solos en el mundo 
C        G              D 
 alma y alma, piel con piel 
       C                 G
 imaginando siempre un mundo 
      D                          C
 anhelando siempre ser uno del otro 
G                     D
 y ambos para cada quien

C        G            D
 libres por el universo 
C          G         D
 siempre juntos al andar 
        C               G
 entrelazados nuestros cuerpos 
        D
 son delfines en el mar 
           C   G                  D
 uno del otro y ambos para nadie mas 
           C   G                  D    Dsus4 D
 uno del otro y ambos para nadie mas

C           G          D      Dsus4 D
 como el viento y las nubes 
C       G            D
 somos como arena y mar 
        C            G
 somos almas encontradas 
         D
 dos delfines en el mar 
            C   G               D
 uno del otro y ambos para nadie mas. 

 [C,G,D] x2

 E -----------3----3--3--2--2--0---
 B --------3-------3--3--3--3--1---
 G -----2----------2--2--2--2--0---
 D --0-------------0--0--0--0--2---
 A ----------------0-----------3---
 E ----------------0-----------0---

C      G           D
 Solo por el infinito
C         G               D
 en esta historia no hay final 
          C             G 
 soy tu cuerpo y tu mi mente 
          D      
 soy la guerra y tu la paz 
           C    G              D
 uno del otro y ambos para nadie mas
           C    G              D     Dsus4  D
 uno del otro y ambos para nadie mas

C           G          D      Dsus4 D
 como el viento y las nubes 
C       G            D
 somos como arena y mar 
        C            G
 somos almas encontradas 
         D
 dos delfines en el mar 
            C   G               D
 uno del otro y ambos para nadie mas

*[Aqui nada mas se da un rasgueo por nota] 
           C    G                D
 uno del otro y ambos para nadie mas

 
 Dsus4: E 3
        B 3 
        G 2 
        D 0
        A 0
        E 0

 

Que te parecio? Calificalo con estrellas!!

Rating: 2.7/10 (16 votos)

Este fichero es trabajo propio de su transcriptor y representa su interpretación personal de la canción. El material contenido en esta página es para exclusivo uso privado, por lo que se prohibe su reproducción o retransmisión, así como su uso para fines comerciales.


Deja tus comentarios:
Letras de canciones | Musica Independiente