Enviado por: daniel_metal
Agrandar Letra
Reducir Letra
Imprimir


Otras Versiones de Miss Murder:




Afi, Miss Murder

|-------Doubled Guitars-----|
 INTRO                  GTR1                       GTR2
e|----------|--------------------------|--------------------------|
B|----------|--------------------------|--------------------------|
G|-----5--9-|--9-9-9-9-9-9-9-9-9-9-9-9-|--------------------------|
D|-7---7--7-|--7-7-7-7-7-7-7-7-7-7-7-7-|--------------------------|
A|-0--------|--0-0-0-0-0-0-0-0-0-0-0-0-|--/-/-/-/-/-/-------|
E|----------|--------------------------|--/-/-/-/-/-/-------|
 *let ring-----|                          x x x x x x x x x x x x
                                  natural harmonics up and down the fretboard

CHORUS      (notes on B string are fretted not heard)
e|-------------------------------|----------------------------------|
B|--------7--7-7-5--5-5----------|--------7--7-7-5--5-5-------------|
G|--------7--7-7-5--5-5-4--4-4-4-|-5--5-5-7--7-7-5--5-5-4-----------|
D|-7--7-7-7--7-7-5--5-5-5--5-5-5-|-7--7-7-7--7-7-5--5-5-5--5--5-5-5-|
A|-7--7-7-5--5-5-3--3-3-5--5-5-5-|-7--7-7-5--5-5-3--3-3-5-----------|
E|-5--5-5-5--5-5-3--3-3-3--3-3-3-|-5--5-5-5--5-5-3--3-3-3-----------|
                                                           x  x x x
                                                        natural harmonics

e|-------------------------------|----------------------------------|
B|--------7--7-7-5--5-5----------|----------------------------------|
G|-5--5-5-7--7-7-5--5-5-4--4-4-4-|---------2-2-2---------/9-9-9-----|
D|-7--7-7-7--7-7-5--5-5-5--5-5-5-|-3-3-3-3-3-3-3-----2---/9-9-9-----|
A|-7--7-7-5--5-5-3--3-3-5--5-5-5-|-3-3-3-3-3-3-3-----2---/7-7-7-----|
E|-5--5-5-5--5-5-3--3-3-3--3-3-3-|-1-1-1-1-1-1-1--0--0----0-0-0-----|
                                 PM. . . .

VERSE (1)
e|------------------------------------------|
B|------------------------------------------|
G|-----9----9h10-10----9----9---------------|(X2)
D|-7-7---10---------10---10---10-5-5--7-7-7-| (let ring after second time
A|------------------------------------------|  until the pre chorus)
E|------------------------------------------|
PM . .   .          .    .    .       x x x
                                 natural harmonics
PRE CHORUS
e|-----------------|  |----------------------------------|
B|-----------------|  |----------------------------------|
G|-----------------|  |-4----------------1---------------|
D|-7---------------|X2|-5----------------2---------------|
A|-7---7-7-7-7-7-7-|  |-5---5-5-5-5-5----2---2-2-2-2-2-0-|
E|-5---5-5-5-5-5-5-|  |-3---3-3-3-3-3-0--0---0-0-0-0-0-0-|
     PM. . . . . .        PM. . . . . .    PM. . . . . .

e|-----------------|  |----------------------------------|
B|-----------------|  |----------------------------------|
G|-----------------|  |-4-------4--------1---------------|
D|-7---------------|X2|-5-------5--------2---------------|
A|-7---7-7-7-7-7-7-|  |-5---5-5-5---5-0--2---------------|
E|-5---5-5-5-5-5-5-|  |-3---3-3-3---3-0--0---------------|
     PM. . . . . .        PM. .     . .     ("BEHIND")

CHORUS      (notes on B string are fretted not heard)
e|-------------------------------|----------------------------------|
B|--------7--7-7-5--5-5----------|--------7--7-7-5--5-5-------------|
G|--------7--7-7-5--5-5-4--4-4-4-|-5--5-5-7--7-7-5--5-5-4-----------|
D|-7--7-7-7--7-7-5--5-5-5--5-5-5-|-7--7-7-7--7-7-5--5-5-5--5--5-5-5-|
A|-7--7-7-5--5-5-3--3-3-5--5-5-5-|-7--7-7-5--5-5-3--3-3-5-----------|
E|-5--5-5-5--5-5-3--3-3-3--3-3-3-|-5--5-5-5--5-5-3--3-3-3-----------|
                                                           x  x x x
                                                        natural harmonics

e|-------------------------------|----------------------------------|
B|--------7--7-7-5--5-5----------|----------------------------------|
G|-5--5-5-7--7-7-5--5-5-4--4-4-4-|---------2-2-2---------/9-9-9-----|
D|-7--7-7-7--7-7-5--5-5-5--5-5-5-|-3-3-3-3-3-3-3-----2---/9-9-9-----|
A|-7--7-7-5--5-5-3--3-3-5--5-5-5-|-3-3-3-3-3-3-3-----2---/7-7-7-----|
E|-5--5-5-5--5-5-3--3-3-3--3-3-3-|-1-1-1-1-1-1-1--0--0----0-0-0-----|
                                 PM. . . .
e|---------------------------------------------------------------------------|
B|---------------------------------------------------------------------------|
G|-------------5-----------------------7-----------------------4-------------|
D|-7-7-7-7-7-7---7-7-7-7-7-7-7-7-7-7-7---7-7-7-7-7/5-5-5-5-5-5---5-5-5-5-5---| 
A|-------------------------------------------------------------------------7-|
E|---------------------------------------------------------------------------|
 PM. . . . . .   . . . . . . . . . . .   . . . . . . . . . . .   . . . . .

e|-----------------------|---------------------------------------------------|
B|-----------------------|---------------------------------------------------|
G|-----------9-----------|-------------5-----------------------5-----5h7-7---|
D|-----------------------|-7-7-7-7-7-7---7-7-7-7-7-7-7-7-7-7-7---7-7---------|
A|-7-7-7-7-7---7-7-7-7-7-|---------------------------------------------------|
E|-----------------------|---------------------------------------------------|
   . . . . .   . . . . .   . . . . . .   . . .
                             (Gradually come out of palm mute)

e|----------------------------------------|
B|----------------------------------------|
G|-------------4------------9-9-9-9-9-9-9-|
D|-5-5-5-5-5-5---5-5-5-5----9-9-9-9-9-9-9-|
A|--------------------------7-7-7-7-7-7-7-|
E|-----------------------0--0-0-0-0-0-0-0-|

Verse (2)
      This part is kind of confusing. Jade uses some kind of filter effect near the end 
the verse. He flips his toggle switch back and forth to create the little delay part.
e|-------12------12-----13-----10-----10/7-----------------------------------|
B|---------13------13------------12-----12/9---------------------------------|
G|---------------------------------------------------------------------------|
D|-7-------------------------------------------------------------------------|
A|-0-------------------------------------------------------------------------|
E|---------------------------------------------------------------------------|




BRIDGE
e|---------------------------------------------------------------------------|
B|---------------------------------------------------------------------------|
G|---------9-------8--------------------------9-------8----------------------|
D|---7-------7-------7------------------7-------7-------7-----10--10---------|
A|-0---0-0-----0-0-----0---10-10-10---0---0-0-----0-0-----0---10--10---------|
E|-----------------------0--8--8--8-0-----------------------0--8---8---------|
           (the first time you play it clean with no distortion)

e|---------------------------------------------------------------------------|
B|---------------------------------------------------------------------------|
G|---------9-------8-------------------9--9----------------9-9-9-9-9-9-------|
D|---7-------7-------7-----------------7--7----------------7-7-7-7-7-7-------|
A|-0---0-0-----0-0-----0---10-10-10----0--0----------------0-0-0-0-0-0-0-----|
E|-----------------------0--8--8--8-0----------------------------------0-----|
                                        ("WITHOUT HOPE") PM. . .
e|------------------------------------------|
B|------------------------------------------|
G|---------9-------8-------------------9--9-|
D|-----------7-------7-----------------7--7-|
A|-0-0-0-0-----0-0-----0-0-10-10-10-0--0--0-|
E|-----------------------0--8--8--8-0-------|


e|---------------------------------------------------------------------------|
B|---------------------------------------------------------------------------|
G|---------------------------------------------------------------------------|
D|-2-2-2-2-2-2-2-2--2-2-2-2-2-2-2-2-2-2-2-2----------------------------------|
A|-2-2-2-2-2-2-2-2--2-2-2-2-2-2-2-2-2-2-2-2----------------------------------|
E|-0-0-0-0-0-0-0-0--0-0-0-0-0-0-0-0-0-0-0-0----------------------------------|

      (notes on B string are fretted not heard)
e|-------------------------------|------------------------------------------|
B|--------7--7-7-5--5-5----------|--------7--7-7----------------------------|
G|--------7--7-7-5--5-5-4--4-4-4-|-5--5-5-7--7-7----------------------------|
D|-7--7-7-7--7-7-5--5-5-5--5-5-5-|-7--7-7-7--7-7----------------------------|
A|-7--7-7-5--5-5-3--3-3-5--5-5-5-|-7--7-7-5--5-5-3-3-3-3-3-5-5-5-5-5-5-5----|
E|-5--5-5-5--5-5-3--3-3-3--3-3-3-|-5--5-5-5--5-5-3-3-3-3-3-------------5----|
                                              PM . . . . . x x x x x x x
                                                          natural harmonic
CHORUS      (notes on B string are fretted not heard)
e|-------------------------------|----------------------------------|
B|--------7--7-7-5--5-5----------|--------7--7-7-5--5-5-------------|
G|--------7--7-7-5--5-5-4--4-4-4-|-5--5-5-7--7-7-5--5-5-4-----------|
D|-7--7-7-7--7-7-5--5-5-5--5-5-5-|-7--7-7-7--7-7-5--5-5-5--5--5-5-5-|
A|-7--7-7-5--5-5-3--3-3-5--5-5-5-|-7--7-7-5--5-5-3--3-3-5-----------|
E|-5--5-5-5--5-5-3--3-3-3--3-3-3-|-5--5-5-5--5-5-3--3-3-3-----------|
                                                           x  x x x
                                                        natural harmonics

e|-------------------------------|----------------------------------|
B|--------7--7-7-5--5-5----------|----------------------------------|
G|-5--5-5-7--7-7-5--5-5-4--4-4-4-|---------2-2-2---------/9-9-9-----|
D|-7--7-7-7--7-7-5--5-5-5--5-5-5-|-3-3-3-3-3-3-3-----2---/9-9-9-----|
A|-7--7-7-5--5-5-3--3-3-5--5-5-5-|-3-3-3-3-3-3-3-----2---/7-7-7-----|
E|-5--5-5-5--5-5-3--3-3-3--3-3-3-|-1-1-1-1-1-1-1--0--0----0-0-0-----|
                                 PM. . . .
OUTRO CHORUS
e|---------------------------|----------------------|
B|---------------------------|----------------------|
G|--14----16----17----12--13-|-14----16----19----17-|
D|---x-----x-----x-----x---x-|--x-----x-----x-----x-|
A|--12----14----15----10--11-|-12----14----17----15-|
E|---------------------------|----------------------|
                (These parts are all tremelo picking
                   accept for the last two notes)
e|---------------------------|---------------------|
B|---------------------------|---------------------|
G|--14----16----17----12--13-|-14----13-----9----9-|
D|---x-----x-----x-----x---x-|--x-----x-----7----7-|
A|--12----14----15----10--11-|-12----11-----0----0-|
E|---------------------------|---------------------|
   
 PEACE

| . Palm Mute
| /  slide up
|   slide down
| h  hammer-on
| p  pull-off
| ~  vibrato
| x  Mute note

Aviso: Este fichero es trabajo propio de su transcriptor y representa su interpretación personal de la canción. El material contenido en esta página es para exclusivo uso privado, por lo que se prohibe su reproducción o retransmisión, así como su uso para fines comerciales.

Califica esta canción


Comentarios en Facebook