Acordes y tablaturas para guitarra

Acordes y Tablaturas
Usuario: Password:

Buscar:
Acordes y Tablaturas >> Letra M >> Acordes de Muse >> Hysteria
Tablatura de Hysteria, Muse

Hysteria

Muse






Intro/Verso Bajo
G|---------------------------------------------------------------|
D|-----5---5-7---5-----------------------------5-5-----5-5---5-7-|
A|-0-0---0-----0---7-0-8-8-7-5-7-----5---5-7---------------------|
E|-------------------------------0-0---0-----0-----0-0-----0-----|

G|-----5---5-7---5---5-4---4-3---3-------------------------------|
D|-0-0---0-----0---0-----0-----0-------5---5-7---5---------------|
A|---------------------------------0-0---0-----0---7-0-8-8-7-5-7-|
E|---------------------------------------------------------------|


Intro                                Pre-Chorus
e|----------------------------------------|---------|
B|----12~-10-----12~-10----12~-10---12~~~-|---------|
G|-14---------13--------10--------9-------|---------|
D|----------------------------------------|-7-7-7-7-|
A|-12---------11--------8---------7-------|-7-7-7-7-|
E|----------------------------------------|-5-5-5-5-|
                                            * * * * Palm Muted
Chorus
G|-5---7---|-----|---------------------------------------------|
D|-5-5-7-7-|-12-|---------------------------------------------|
A|-3-5-5-7-|-----|---------------------------------------------|
E|-3-3-5-5-|-10-|-0-0-10-0-10-12-0-15-15-12-12-15-15-12-15-17-|

Otro riff similar
G|--------------------------------------|
D|--------------------------------------|
A|--------------------------------------|
E|-0-0-10-0-10-12-0-10-0-10-9-0-9-8-0-8-|

Solo
e|-------------------------------------------------------------------------------------------------|
B|-------17-17-------18-18-------18-18-17-17----17-------17-17-------18-18-------18-18-17-17----17-|
G|-14-14-------14-14-------14-14-------------14----13-13-------13-13-------13-13-------------13----|
D|-------------------------------------------------------------------------------------------------|

e|-------------------17-17-------------------------|-------------------------------------------------|
B|-------18-18-------------------18-18-------17-17-|-------17-17-------17-17-------18-18-17-17----17-|
G|-14-14-------14-14-------14-14-------14-14-------|-14-14-------14-14-------14-14-------------14----|
D|-------------------------------------------------|-------------------------------------------------|

e|-----------------------------------------------|
B|-17---------15---------13----------12----------|
G|-----------------------------------------------|
D|---17-17-17---15-15-15----14-14-14----12-12-12-|

e|-----------------------------------------------------------------------------------|
B|-13-----13-12-10/12-12-------12-12-13/15-15-------15-13-12/13-13-------15-13-12/13-|
G|---12------------------12-------------------14-------------------14----------------|
D|-----14-------------------12-------------------15-------------------14-------------|


Que te parecio? Calificalo con estrellas!!

Rating: 8.3/10 (214 votos)

Este fichero es trabajo propio de su transcriptor y representa su interpretación personal de la canción. El material contenido en esta página es para exclusivo uso privado, por lo que se prohibe su reproducción o retransmisión, así como su uso para fines comerciales.


Deja tus comentarios:
Letras de canciones | Musica Independiente