Acordes y tablaturas para guitarra

Acordes y Tablaturas
Usuario: Password:

Buscar:
Acordes y Tablaturas >> Letra L >> Acordes de Led Zeppelin >> Bron-Yr-Aur
Tablatura de Bron-Yr-Aur, Led Zeppelin

Bron-Yr-Aur

Led Zeppelin






Bron-Yr-Aur - Led Zeppelin 1975     

     
xpero q les guste 
q viva zeppelin
|-----------0------------------------0------------------------0-|
|--------0--------------0---------0--------------0---------0----|
|-----0--------------0---------0--------------0---------0-------|
|-----------------0------------------------0--------------------|
|-/3-----------------------/3-----------------------/3----------|
|--------------0------------------------0-----------------------|


|-----------------------0------------------------0--------------|
|----------0---------0--------------0---------0--------------0--|
|-------0---------0--------------0---------0--------------0-----|
|----0------------------------0------------------------0--------|
|-------------/3-----------------------/3-----------------------|
|-0------------------------0------------------------0-----------|

                                     p
|-----------0-----------------------3-0-------------------------|
|--------0--------------0--2-------------2-----0-----------0----|
|-----0--------------0--------0-------------0-----------0-------|
|-----------------0--------------2-------2-----------0----------|
|-/3-----------------------2----------2-----------3-------------|
|--------------0----------------------------------------0-----0-|


|----------------0-----------0----------------------------------|
|-------5--------------------0-----------0-----------2----------|
|----0-----4-----------4-----0--------0-----------------0-------|
|-0-----------0-----------0--------0-----------0-----------2----|
|-------5-----------5-----------3--------------------2----------|
|-------------------------------------0-----0-----0-------------|

   p
|-3-0-----------------------------------------0-----------------|
|------2-----------------0-----------5--------------------0-----|
|---------0-----------0-----------0-----4-----------4-----------|
|---------------0--------------0-----------0-----------0--------|
|---2--------3-----3-----------------5-----------5-----------3--|
|---------------------0-----0-----------------------------------|


|----------------------------------------0----------------------|
|-------0--------------------0--------------0-------0-----------|
|----0--------------0-----------------0----------0-----------0--|
|-0-----------0--------0-----------0----------------------0-----|
|-------------------------0-----0-----------0/3-----------------|
|----0-----0-----0--5-----------------0----------------0--------|

                                                        p
|----------------------0-------------------------------3-0------|
|----------0--------------0-------0-----------2-------------2---|
|-0-----------------0----------0-----------0-----0--------------|
|----0-----------0----------------------0-----------2-------2---|
|-------0-----0-----------0/3-----------------2----------2------|
|-5-----------------0----------------0--------------------------|


|-------------------------------------0-----------0-------------|
|----0-----------0-----------5--------------------0-----------0-|
|-0-----------0-----------0-----4-----------4-----0--------0----|
|----------0-----------0-----------0-----------0--------0-------|
|-------3--------------------5-----------5-----------3----------|
|-------------0-----0--------------------------------------0----|


|---------------------------------------------------------------|
|--------------------0-----------2-----------4-----------0------|
|-------0---------0-----------0-----------4-----------0---------|
|----0---------0-----------2-----------4-----------4------------|
|----------/3-----------2-----------0-----------0-----------/3--|
|-0-------------------------------------------------------------|


|---------------------------------------------------------------|
|-------0-----------2-----------4-----------0------------0------|
|----0-----------0-----------4-----------0------------0---------|
|-0-----------2-----------4-----------4------------0------------|
|----------2-----------0-----------0-----------/3-----------2---|
|---------------------------------------------------------------|


|--------------------h-p----------h-p---------------------------|
|-------2/4---------4-5-4--------4-5-4--------4-----------5-----|
|----0-----------4------------4------------4-----------4--------|
|-2-----------4------------4------------4-----------4-----------|
|----------0------------0------------0-----------0--------------|
|---------------------------------------------------------------|


|---------------------------------------------------------------|
|----------4-----------4/5--------5--7--------0-------------0---|
|-------4-----------4----------5-----------7-------------0------|
|----4-----------4----------5-----------7-------------0---------|
|-0-----------0----------------------------------0/3------------|
|------------------------5---------5/7-----7--------------------|


|---------------------------------------------------------------|
|----------0-------------5--7--------0-------------0------------|
|-------0-------------5-----------7-------------0-----------0---|
|----0-------------5-----------7-------------0-----------0------|
|---------------------------------------0/3---------------------|
|-0-----------2/5---------5/7-----7-------------------0---------|


|---------------------------------------------------------------|
|-0-----------5--7--------0-------------0-----------0-----------|
|----------5-----------7-------------0-----------0-----------5--|
|-------5-----------7-------------0-----------0-----------5-----|
|----------------------------0/3--------------------------------|
|----5---------5/7-----7-------------------0-----------5--------|

                                                  p
|------------------------------------------------3-0------------|
|-5--7--------0-------------0-----------2-------------2-----0---|
|----------7-------------0-----------0-----0-------------0------|
|-------7-------------0-----------0-----------2-------2---------|
|----------------0/3--------------------2----------2------------|
|--5/7-----7-------------------0--------------------------------|


|-------------------------------0-----------0-------------------|
|----------0-----------5--------------------0-----------0-------|
|-------0-----------0-----4-----------4-----0--------0----------|
|----0-----------0-----------0-----------0--------0-----------0-|
|-3--------------------5-----------5-----------3----------------|
|-------0-----0--------------------------------------0-----0----|

               p
|-------------3-0------------------------------------------0----|
|----2-------------2------------------0-----------5-------------|
|-0-----0-------------0------------0-----------0-----4----------|
|----------2-----------------0--------------0-----------0-------|
|----2----------2---------3-----3-----------------5-----------5-|
|----------------------------------0-----0----------------------|


|-------0--------------------------------------------0----------|
|-------0-----------0--------------------0--------------0-------|
|-4-----0--------0--------------0-----------------0----------0--|
|----0--------0-----------0--------0-----------0----------------|
|----------3--------------------------0-----0-----------0/3-----|
|----------------0-----0-----0--5-----------------0-------------|


|----------------------------------0----------------------------|
|-0--------------------0--------------0-------0-----------2-----|
|----------0--0-----------------0----------0-----------0-----0--|
|-------0--------0-----------0----------------------0-----------|
|-------------------0-----0-----------0/3-----------------2-----|
|----0--------5-----------------0----------------0--------------|

      p
|----3-0-----------------------------------------0-----------0--|
|---------2-----0-----------0-----------5--------------------0--|
|------------0-----------0-----------0-----4-----------4-----0--|
|-2-------2-----------0-----------0-----------0-----------0-----|
|------2-----------3--------------------5-----------5-----------|
|------------------------0-----0--------------------------------|


|--------------------------------------------------------h-p----|
|----------0--------------------0-----------2/4---------4-5-4---|
|-------0-----------0--------0-----------0-----------4----------|
|----0-----------0--------0-----------2-----------4-------------|
|-3--------------------3-----------2-----------0----------------|
|-------0-----0-------------------------------------------------|


|------------------------------------------------h-p------------|
|----------0------------0-----------2/4---------4-5-4--------0--|
|-------4------------0-----------0-----------4------------4-----|
|----4------------0-----------2-----------4------------4--------|
|-0-----------/3-----------2-----------0------------0-----------|
|---------------------------------------------------------------|


|------------------------------------h-p------------------------|
|-----------0-----------2/4---------4-5-4-----4-----------5-----|
|--------0-----------0-----------4---------------------4--------|
|-----0-----------2-----------4------------4--------4-----------|
|-/3-----------2-----------0------------0--------0-----------0--|
|---------------------------------------------------------------|


|---------------------------------------------------------------|
|-------4-----------5-----------4/5--------5----------0---------|
|----4-----------4-----------4----------5----------7------------|
|-4-----------4-----------4----------5----------7-----------0---|
|----------0-----------0-------------------------------0/3------|
|---------------------------------5---------5/7-----------------|


|---------------------------------------------------------------|
|----0-----------0-------------5-/7-----0-----------0-----------|
|-0-----------0-------------5--------7-----------0-----------0--|
|----------0-------------5--------------------0-----------0-----|
|----------------------------------------0/3--------------------|
|-------0-----------2/5---------5/7--------------------0--------|


|---------------------------------------------------------------|
|-0-------------5-/7-----0-----------0-----------0--------------|
|------------5--------7-----------0-----------0-------------5---|
|---------5--------------------0-----------0-------------5------|
|-------------------------0/3-----------------------------------|
|----2/5---------5/7--------------------0-----------2/5---------|



|---------------------------------------------------------------|
|-5-/7--7--------------4-----------5-----------4-----------5----|
|----------7--------4-----------4-----------4-----------4-------|
|----------------4-----------4-----------4-----------4----------|
|-------------0-----------0-----------0-----------0-----------0-|
|--5/7----------------------------------------------------------|


|---------------------------------------------------------------|
|-------4-----------5-----------4-----------4-----------0-------|
|----4-----------4-----------4-----------4-----------0--------5-|
|-4-----------4-----------4-----------4-----------5--------7----|
|----------0-----------0-----------0-----------7----------------|
|---------------------------------------------------------------|

        slower..
|----0-----------0-----------0-----------0-----------0----------|
|-0-----------5-----------5-----------5-----------5-----------5-|
|----------7-----------7-----------7-----------7-----------7----|
|-------0-----------0-----------0-----------7-----------0-------|
|---------------------------------------------------------------|
|---------------------------------------------------------------|

                 C - let ring
|-0-----------0--X-----------|
|----------5-----0-----------|
|-------7--------0-----------|
|----7-----------0-----------|
|----------------3-----------|
|----------------0-----------|





Que te parecio? Calificalo con estrellas!!

Rating: 5.4/10 (26 votos)

Este fichero es trabajo propio de su transcriptor y representa su interpretación personal de la canción. El material contenido en esta página es para exclusivo uso privado, por lo que se prohibe su reproducción o retransmisión, así como su uso para fines comerciales.


Deja tus comentarios:

Letras de Led Zeppelin
Letras de canciones | Musica Independiente