Acordes y tablaturas para guitarra

Acordes y Tablaturas
Usuario: Password:

Buscar:
Acordes y Tablaturas >> Letra t >> Acordes de three days grace >> animal i have become
Tablatura de animal i have become, three days grace

Animal i have become

Three days grace

Transcriptor:
david_eruption
Letras de Canciones
Acordes para Guitarra





Intro
e|---------------------------------------------------------------------------|
B|---------------------------------------------------------------------------|
G|---------------------------------------------------------------------------|
D|---------------------------------------------------------------------------|
A|-----------6---------------------------------------------------------------|
D|---0-0-7-8---8-7-----------------------------------------------------------|

Guitar 2
e|---------------------------------------------------------------------------|
B|---------------------------------------------------------------------------|
G|---------------------------------------------------------------------------|
D|---------------------------------------------------------------------------|
A|---00----------00---------00---------00------------------------------------|
D|---00----------00---------00---------00------------------------------------|


Verse
e|---------------------------------------------------------------------------|
B|---------------------------------------------------------------------------|
G|---------------------------------------------------------------------------|
D|---88-888-888-888-5--------------------------------------------------------|
A|---88-888-888-888-5-----00-----6---------x3--------------------------------|
D|---88-888-888-888-5b----00-7-8---8-7---------------------------------------|

Then….
e|---------------------------------------------------------------------------|
B|---------------------------------------------------------------------------|
G|---------------------------------------------------------------------------|
D|--888-888-888-333-333-333-7------------------------------------------------|
A|--888-888-888-333-333-333-7------------------------------------------------|
D|--888-888-888-333-333-333-7------------------------------------------------|

Chorus    (note: I don’t know if this is the right strumming pattern)
e|---------------------------------------------------------------------------|
B|---------------------------------------------------------------------------|
G|---------------------------------------------------------------------------|
D|-55-88-00-33-8-7--55-88-00-33-8-7-5----------------------------------------|
A|-55-88-00-33-8-7--55-88-00-33-8-7-5----------------------------------------|
D|-55-88-00-33-8-7--55-88-00-33-8-7-5----------------------------------------|

Interlude
e|---------------------------------------------------------------------------|
B|---------------------------------------------------------------------------|
G|---------------------------------------------------------------------------|
D|--88-888-8-55-----------00-000--33-333-------------------------------------|
A|--88-888-8-55-----6-----00-000--33-333-x2-----6----------------------------|
D|--88-888-8-55-7-8---8-7-00-000--33-333----7-8---8-7------------------------|
Than you do the intro really quietly…
e|---------------------------------------------------------------------------|
B|---------------------------------------------------------------------------|
G|---------------------------------------------------------------------------|
D|---------------------------------------------------------------------------|
A|-----------6---------------------------------------------------------------|
D|---0-0-7-8---8-7—x4--------------------------------------------------------|

e|-----------------------------------------------------------------|
B|-----------------------------------------------------------------|
G|-----------------------------------------------------------------|
D|-----------------------------------------------------------------|
A|-----------------------------------------------------------------|
D|---5----8----0---let ring----------------------------------------|

Outro
e|--------------------------------------------------------|
B|--------------------------------------------------------|
G|--------------------------------------------------------|
D|--------------------------------------------------------|
A|----------6----x3--------66-----------------------------|
D|--0-7-8---8-7------0-7-8----8-7-0-----------------------|


Que te parecio? Calificalo con estrellas!!

Rating: 7.9/10 (210 votos)

Este fichero es trabajo propio de su transcriptor y representa su interpretación personal de la canción. El material contenido en esta página es para exclusivo uso privado, por lo que se prohibe su reproducción o retransmisión, así como su uso para fines comerciales.


Deja tus comentarios:
Letras de canciones | Musica Independiente