Enviado por: david_eruption
Agrandar Letra
Reducir Letra
Imprimir


Otras Versiones de Never Too Late:









Three Days Grace, Never Too Late

 Q    E   Q    E  Q       Q     Q    Q    E  E     Q    E   Q    E  Q     
E||------------------------|------------------------|------------------------|
B||------------------------|------------------------|------------------------|
G||------------------------|------------------------|------------------------|
D||----------10------------|-------10----8----7--0--|----------10------------|
A||-------8--------8-------|--0---------------------|-------8--------8-------|
D||--8----------------0----|------------------------|--8----------------0----|


  Q     Q    Q    E  E     Q    E   Q    E  Q       Q     Q    Q    E  E   
------------------------|------------------------|------------------------|
------------------------|------------------------|------------------------|
------------------------|------------------------|------------------------|
-------10----8----7--0--|----------10------------|-------10----8----7--0--|
--0---------------------|-------8--------8-------|--0---------------------|
------------------------|--8----------------0----|------------------------|


                                                                 This  
  Q    E   Q    E   Q       W                   Q    E   Q    E  Q     
-------------------------|-------------------|------------------------|
-------------------------|-------------------|------------------------|
-------------------------|-------------------|------------------------|
----------10-------10----|--L----------------|----------10------------|
-------7--------7--10----|--L----------------|-------8--------8-------|
--7----------------10----|--L----------------|--8----------------0----|


  world  will never be                        What    I     ex-  pect- ed     
  Q      Q    Q     E  E     Q    E   Q    E  Q       Q     Q    Q     E  E   
--------------------------|------------------------|-------------------------|
--------------------------|------------------------|-------------------------|
--------------------------|------------------------|-------------------------|
--------10----8-----7--0--|----------10------------|-------10----8-----7--0--|
--0-----------------------|-------8--------8-------|--0----------------------|
--------------------------|--8----------------0----|-------------------------|


                   And     if    I    don't be- long                      Who   
  Q    E   Q    E  Q       Q     Q    Q     E   E       Q    E   Q    E   Q     
------------------------|----------------------------|-------------------------|
------------------------|----------------------------|-------------------------|
------------------------|----------------------------|-------------------------|
----------10------------|-------10----8-----7---0----|----------10-------10----|
-------8--------8-------|--0-------------------------|-------7--------7--10----|
--8----------------0----|----------------------------|--7----------------10----|


 would have  guessedit                      I       will  not  leave al- one  
  W                   Q     E     Q      E  Q       Q     Q    Q     E   E    
-------------------|-----------------------------|---------------------------|
-------------------|-----------------------------|---------------------------|
-------------------|-----------------------------|---------------------------|
--L----------------|-------------10--------------|-------10----8-----7---0---|
--L----------------|--------8------------8-------|--0------------------------|
--L----------------|--8---------------------0----|---------------------------|


                   Every-    thing  that I    own                        To    
  Q    E   Q    E  Q         Q      Q    Q    E   E     Q    E   Q    E  Q     
--------------------------|--------------------------|------------------------|
--------------------------|--------------------------|------------------------|
--------------------------|--------------------------|------------------------|
----------10--------------|--------10----8----7---0--|----------10------------|
-------8--------8---------|--0-----------------------|-------8--------8-------|
--8----------------0------|--------------------------|--8----------------0----|


  make  you  feel like it's    not too late  It's never  too   
  Q     Q    Q    E    E       Q       E     Q    E      Q     
----------------------------|---------------------------------|
----------------------------|---------------------------------|
----------------------------|---------------------------------|
-------10----8----7----0----|---------------10----------10----|
--0-------------------------|----------7----------7-----10----|
----------------------------|--7------------------------10----|


 late                                             Even if I say                     
  W                   Q    E  E  E  E  Q          W                 
-------------------|---------------------------|-------------------|
-------------------|---------------------------|-------------------|
-------------------|---------------------------|-------------------|
--L----------------|--0----0--0--x--x--8-------|--L----------------|
--L----------------|--0----0--0--x--x--8-------|--L----------------|
--L----------------|--0----0--0--x--x--8-------|--L----------------|


                                It'll  be alright                       
  Q     E  E  E  E      Q       W                 
-----------------------------|-------------------|
-----------------------------|-------------------|
-----------------------------|-------------------|
--7-----7--7--x--x-----10----|--L----------------|
--7-----7--7--x--x-----10----|--L----------------|
--7-----7--7--x--x-----10----|--L----------------|


                                 Still I hear you say                     
  Q       E  E  E  E  Q          W                 
------------------------------|-------------------|
------------------------------|-------------------|
------------------------------|-------------------|
--0-------0--0--x--x--8-------|--L----------------|
--0-------0--0--x--x--8-------|--L----------------|
--0-------0--0--x--x--8-------|--L----------------|


                                        You want to end your life
  Q        E   E  E  E         Q        W                 
-------------------------------------|-------------------|
-------------------------------------|-------------------|
-------------------------------------|-------------------|
--7--------7---7--x--x--------10-----|--L----------------|
--7--------7---7--x--x--------10-----|--L----------------|
--7--------7---7--x--x--------10-----|--L----------------|


                                         Now and again we try
  Q         E  E  E  E       Q           W                 
--------------------------------------|-------------------|
--------------------------------------|-------------------|
--------------------------------------|-------------------|
--0---------0--0--x--x-------8--------|--L----------------|
--0---------0--0--x--x-------8--------|--L----------------|
--0---------0--0--x--x-------8--------|--L----------------|


                                      To just stay alive                     
  Q    E  E  E  E        Q            W                 
-----------------------------------|-------------------|
-----------------------------------|-------------------|
-----------------------------------|-------------------|
--7----7--7--x--x-------10---------|--L----------------|
--7----7--7--x--x-------10---------|--L----------------|
--7----7--7--x--x-------10---------|--L----------------|


       Maybe we'll turn it around 'Cause                      
  Q           E       E      E  E  Q         W                 
------------------------------------------|-------------------|
------------------------------------------|-------------------|
------------------------------------------|-------------------|
--8-----------8-------8------x--x--0------|--L----------------|
--8-----------8-------8------x--x--0------|--L----------------|
--8-----------8-------8------x--x--0------|--L----------------|


                it's not too late              It's never too late                     
  Q        E        E  E  E           Q          W                 
----------------------------------------------|-------------------|
----------------------------------------------|-------------------|
----------------------------------------------|-------------------|
--7--------7--------7--x--x----------10-------|--L----------------|
--7--------7--------7--x--x----------10-------|--L----------------|
--7--------7--------7--x--x----------10-------|--L----------------|


                   No      one   will ever see                        This  
  Q    E   Q    E  Q       Q     Q    Q    E   E     Q    E   Q    E  Q     
------------------------|-------------------------|------------------------|
------------------------|-------------------------|------------------------|
------------------------|-------------------------|------------------------|
----------10------------|-------10----8----7---0--|----------10------------|
-------8--------8-------|--0----------------------|-------8--------8-------|
--8----------------0----|-------------------------|--8----------------0----|


  side  re-  flect- ed                        And   
  Q     Q    Q      E  E     Q    E   Q    E  Q     
--------------------------|------------------------|
--------------------------|------------------------|
--------------------------|------------------------|
-------10----8------7--0--|----------10------------|
--0-----------------------|-------8--------8-------|
--------------------------|--8----------------0----|


  if    there's     some- thing    wrong              Who would 
  Q     Q      Q    E     E        Q     E   Q    E   Q         
--------------------------------|------------------------------|
--------------------------------|------------------------------|
--------------------------------|------------------------------|
-------10------8----7-----0-----|-----------10-------10--------|
--0-----------------------------|--------7--------7--10--------|
--------------------------------|--7-----------------10--------|


  have guessed it                              And     I     have left a- lone  
  W                   Q            E   Q    E  Q       Q     Q    Q    E  E     
-------------------|--------------------------------|--------------------------|
-------------------|--------------------------------|--------------------------|
-------------------|--------------------------------|--------------------------|
--L----------------|------------------10------------|-------10----8----7--0----|
--L----------------|---------------8--------8-------|--0-----------------------|
--L----------------|--8------------------------0----|--------------------------|


                   Everything    that  I    own         
  Q    E   Q    E  Q             Q     Q    Q    E  E   
------------------------------|------------------------|
------------------------------|------------------------|
------------------------------|------------------------|
----------10------------------|-------10----8----7--0--|
-------8--------8-------------|--0---------------------|
--8----------------0----------|------------------------|


                   To      make  you  feel like It's  
  Q    E   Q    E  Q       Q     Q    Q    E    E     
------------------------|----------------------------|
------------------------|----------------------------|
------------------------|----------------------------|
----------10------------|-------10----8----7----0----|
-------8--------8-------|--0-------------------------|
--8----------------0----|----------------------------|


  not too late       It's  never  too  late
  Q       E     Q    E     Q       W                 
--------------------------------|-------------------|
--------------------------------|-------------------|
--------------------------------|-------------------|
---------------10---------10----|--L----------------|
----------7----------7----10----|--L----------------|
--7-----------------------10----|--L----------------|


                          Even if I say                      
  Q    E    E  E  E       Q        W                 
--------------------------------|-------------------|
--------------------------------|-------------------|
--------------------------------|-------------------|
--0----0----0--x--x-------8-----|--L----------------|
--0----0----0--x--x-------8-----|--L----------------|
--0----0----0--x--x-------8-----|--L----------------|


                       It'll be  alright                     
  Q    E  E  E     E   Q         W                 
------------------------------|-------------------|
------------------------------|-------------------|
------------------------------|-------------------|
--7----7--7--x-----x--10------|--L----------------|
--7----7--7--x-----x--10------|--L----------------|
--7----7--7--x-----x--10------|--L----------------|


                        Still I hear Say 
  Q    E  E  E  E       Q           W                 
---------------------------------|-------------------|
---------------------------------|-------------------|
---------------------------------|-------------------|
--0----0--0--x--x-------8--------|--L----------------|
--0----0--0--x--x-------8--------|--L----------------|
--0----0--0--x--x-------8--------|--L----------------|


                              you want to end your life
  Q    E  E  E        E       Q           W                 
---------------------------------------|-------------------|
---------------------------------------|-------------------|
---------------------------------------|-------------------|
--7----7--7--x--------x------10--------|--L----------------|
--7----7--7--x--------x------10--------|--L----------------|
--7----7--7--x--------x------10--------|--L----------------|


                              Now and again we try 
  Q    E  E  E       E        Q       W                 
-----------------------------------|-------------------|
-----------------------------------|-------------------|
-----------------------------------|-------------------|
--0----0--0--x-------x--------8----|--L----------------|
--0----0--0--x-------x--------8----|--L----------------|
--0----0--0--x-------x--------8----|--L----------------|


                                To just stay alive
  Q    E  E  E       E           Q             W                 
--------------------------------------------|-------------------|
--------------------------------------------|-------------------|
--------------------------------------------|-------------------|
--7----7--7--x-------x----------10----------|--L----------------|
--7----7--7--x-------x----------10----------|--L----------------|
--7----7--7--x-------x----------10----------|--L----------------|


                              Maybe we'll turn it around                      
  Q       E      E  E  E      Q           W                 
---------------------------------------|-------------------|
---------------------------------------|-------------------|
---------------------------------------|-------------------|
--8-------8------8--x--x------0--------|--L----------------|
--8-------8------8--x--x------0--------|--L----------------|
--8-------8------8--x--x------0--------|--L----------------|


  'Cause it's not too late       It's never too+late
  Q        E  E  E          E         Q       W                 
-------------------------------------------|-------------------|
-------------------------------------------|-------------------|
-------------------------------------------|-------------------|
--7--------7--7--x----------x--------10----|--L----------------|
--7--------7--7--x----------x--------10----|--L----------------|
--7--------7--7--x----------x--------10----|--L----------------|


  The       world       we            knew               Won't    come        
  E   E  E  Q     E  E  E     E  Q    E    E  E  Q       H        Q     Q     
---------------------------|--------------------------|----------------------|
---------------------------|--------------------------|----------------------|
---------------------------|--------------------------|----------------------|
--8---8--8--8-----8--8--8--|--8--8----8----8--8--8----|--3--------3----10----|
--8---8--8--8-----8--8--8--|--8--8----8----8--8--8----|--3--------3----10----|
--8---8--8--8-----8--8--8--|--8--8----8----8--8--8----|--3--------3----10----|


         back              The       time       we've  
   Q     H         Q       E   E  E  Q    E  E  E      
------------------------|-----------------------------|
------------------------|-----------------------------|
------------------------|-----------------------------|
---L----10--------10----|--8---8--8--8----8--8--8-----|
---L----10--------10----|--8---8--8--8----8--8--8-----|
---L----10--------10----|--8---8--8--8----8--8--8-----|


          lost               Can't          get                      back  
  E  Q    E    E  E  Q       H        Q     Q        Q     H         Q     
--------------------------|----------------------|------------------------|
--------------------------|----------------------|------------------------|
--------------------------|----------------------|------------------------|
--8--8----8----8--8--8----|--3--------3----10----|---L----10--------10----|
--8--8----8----8--8--8----|--3--------3----10----|---L----10--------10----|
--8--8----8----8--8--8----|--3--------3----10----|---L----10--------10----|


  The       life       we            had               Won't    be    ours  
  E   E  E  Q    E  E  E     E  Q    E   E  E  Q       H        Q     Q     
--------------------------|-------------------------|----------------------|
--------------------------|-------------------------|----------------------|
--------------------------|-------------------------|----------------------|
--8---8--8--8----8--8--8--|--8--8----8---8--8--8----|--3--------3----10----|
--8---8--8--8----8--8--8--|--8--8----8---8--8--8----|--3--------3----10----|
--8---8--8--8----8--8--8--|--8--8----8---8--8--8----|--3--------3----10----|


                           ag-          -  -  -    -  -  -        
   Q     H         Q       E            E  E  Q    E  E  E   
------------------------|-----------------------------------|
------------------------|-----------------------------------|
------------------------|-----------------------------------|
---L----10--------10----|--8------------8--8--8----8--8--8--|
---L----10--------10----|--8------------8--8--8----8--8--8--|
---L----10--------10----|--8------------8--8--8----8--8--8--|

  -  -    -  -  -  -       -                    ain
  E  Q    E  E  E  Q       W                    W                 
------------------------|-------------------|--------------------|
------------------------|-------------------|--------------------|
------------------------|-------------------|--------------------|
--8--8----8--8--8--8----|--7----------------|--10----------------|
--8--8----8--8--8--8----|--7----------------|--10----------------|
--8--8----8--8--8--8----|--7----------------|--10----------------|


                    This world will never be
  Q    E   Q    E   Q       W                 
-------------------------|-------------------|
-------------------------|-------------------|
-------------------------|-------------------|
----------10-------12----|--L----------------|
-------8-----------------|-------------------|
--8-------------0--------|-------------------|


                               What I expected
  Q          E         Q    E   Q        W                 
--------------------------------------|-------------------|
--------------------------------------|-------------------|
--------------------------------------|-------------------|
----------------------10-------12-----|--L----------------|
-------------8------------------------|-------------------|
--8-------------------------0---------|-------------------|


                       And  if  I  don't       belong
                                                      ^                 
  Q        E   Q    E   Q        W                    W      W                             
------------------------------|-------------------|-------|-----|
------------------------------|-------------------|-------|-----|
------------------------------|-------------------|-------|-----|
--------------10-------12-----|--L----------------|--10---|--L--|
-----------8------------------|-------------------|--10---|--L--|
--8-----------------0---------|-------------------|--10---|--L--|


                          Even if I say                      
  Q    E    E  E  E       Q        W                 
--------------------------------|-------------------|
--------------------------------|-------------------|
--------------------------------|-------------------|
--0----0----0--x--x-------8-----|--L----------------|
--0----0----0--x--x-------8-----|--L----------------|
--0----0----0--x--x-------8-----|--L----------------|


                       It'll be  alright                     
  Q    E  E  E     E   Q         W                 
------------------------------|-------------------|
------------------------------|-------------------|
------------------------------|-------------------|
--7----7--7--x-----x--10------|--L----------------|
--7----7--7--x-----x--10------|--L----------------|
--7----7--7--x-----x--10------|--L----------------|


                        Still I hear Say 
  Q    E  E  E  E       Q           W                 
---------------------------------|-------------------|
---------------------------------|-------------------|
---------------------------------|-------------------|
--0----0--0--x--x-------8--------|--L----------------|
--0----0--0--x--x-------8--------|--L----------------|
--0----0--0--x--x-------8--------|--L----------------|


                              you want to end your life
  Q    E  E  E        E       Q           W                 
---------------------------------------|-------------------|
---------------------------------------|-------------------|
---------------------------------------|-------------------|
--7----7--7--x--------x------10--------|--L----------------|
--7----7--7--x--------x------10--------|--L----------------|
--7----7--7--x--------x------10--------|--L----------------|


                              Now and again we try 
  Q    E  E  E       E        Q       W                 
-----------------------------------|-------------------|
-----------------------------------|-------------------|
-----------------------------------|-------------------|
--0----0--0--x-------x--------8----|--L----------------|
--0----0--0--x-------x--------8----|--L----------------|
--0----0--0--x-------x--------8----|--L----------------|


                                To just stay alive
  Q    E  E  E       E           Q             W                 
--------------------------------------------|-------------------|
--------------------------------------------|-------------------|
--------------------------------------------|-------------------|
--7----7--7--x-------x----------10----------|--L----------------|
--7----7--7--x-------x----------10----------|--L----------------|
--7----7--7--x-------x----------10----------|--L----------------|


                              Maybe we'll turn it around                      
  Q       E      E  E  E      Q           W                 
---------------------------------------|-------------------|
---------------------------------------|-------------------|
---------------------------------------|-------------------|
--8-------8------8--x--x------0--------|--L----------------|
--8-------8------8--x--x------0--------|--L----------------|
--8-------8------8--x--x------0--------|--L----------------|


  'Cause it's not too late       It's never too+late
  Q        E  E  E          E         Q       W                 
-------------------------------------------|-------------------|
-------------------------------------------|-------------------|
-------------------------------------------|-------------------|
--7--------7--7--x----------x--------10----|--L----------------|
--7--------7--7--x----------x--------10----|--L----------------|
--7--------7--7--x----------x--------10----|--L----------------|


                              Maybe we'll turn it around                      
  Q       E      E  E  E      Q           W                 
---------------------------------------|-------------------|
---------------------------------------|-------------------|
---------------------------------------|-------------------|
--8-------8------8--x--x------0--------|--L----------------|
--8-------8------8--x--x------0--------|--L----------------|
--8-------8------8--x--x------0--------|--L----------------|


  'Cause it's not too late       It's never too+late
  Q        E  E  E          E         Q       W                 
-------------------------------------------|-------------------|
-------------------------------------------|-------------------|
-------------------------------------------|-------------------|
--7--------7--7--x----------x--------10----|--L----------------|
--7--------7--7--x----------x--------10----|--L----------------|
--7--------7--7--x----------x--------10----|--L----------------|


              (It's+never too+late) it's+not too+late                      
  Q        E  E           E         E        Q           W                 
------------------------------------------------------|-----|
------------------------------------------------------|-----|
------------------------------------------------------|-----|
--8--------8--8-----------x---------x--------0--------|--L--|
--8--------8--8-----------x---------x--------0--------|--L--|
--8--------8--8-----------x---------x--------0--------|--L--|


                               It's+never too+late                                     
  Q          E        E  E  E   Q       W                 
-------------------------------------|-----|
-------------------------------------|-----|
-------------------------------------|-----|
--7----------7--------7--x--x--10----|--L--|
--7----------7--------7--x--x--10----|--L--|
--7----------7--------7--x--x--10----|--L--|


  Q    E   Q    E  Q       Q     Q    Q    E  E     Q    E   Q    E  Q     
------------------------|------------------------|------------------------|
------------------------|------------------------|------------------------|
------------------------|------------------------|------------------------|
----------10------------|-------10----8----7--0--|----------10------------|
-------8--------8-------|--0---------------------|-------8--------8-------|
--8----------------0----|------------------------|--8----------------0----|


  Q     Q    Q    E  E     Q    E   Q    E  Q       Q     Q    Q    E  E   
------------------------|------------------------|------------------------|
------------------------|------------------------|------------------------|
------------------------|------------------------|------------------------|
-------10----8----7--0--|----------10------------|-------10----8----7--0--|
--0---------------------|-------8--------8-------|--0---------------------|
------------------------|--8----------------0----|------------------------|


  Q    E   Q    E   Q       W     W     W
-------------------------|-----|-----|-----||
-------------------------|-----|-----|-----||
-------------------------|-----|-----|-----||
----------10-------10----|--L--|--L--|--L--||
-------7--------7--10----|--L--|--L--|--L--||
--7----------------10----|--L--|--L--|--L--||
Aviso: Este fichero es trabajo propio de su transcriptor y representa su interpretación personal de la canción. El material contenido en esta página es para exclusivo uso privado, por lo que se prohibe su reproducción o retransmisión, así como su uso para fines comerciales.

Califica esta canción


Comentarios en Facebook