Acordes y tablaturas para guitarra

Acordes y Tablaturas
Usuario: Password:

Buscar:
Acordes y Tablaturas >> Letra T >> Acordes de The Doors >> L.A. Woman
Tablatura de L.A. Woman, The Doors

L.A. Woman

The Doors






Aki sta otra rolita de the doors, ahora se trata de L.A. woman, tarde unas tres semanas mas o menos, jeje, buano, ojala sea de su agrado



Intro:

E|--9---------|--7---------|--5---------53|
B|------------|------------|---------------|
G|------------|------------|---------------|
D|------------|------------|---------------|
A|------------|------------|---------------|
E|------------|------------|---------------|

E|-2h3----2--3--2---0h2-|------------------------|
B|----------------------|-2h3----2--3--2--0--2~~-|
G|----------------------|------------------------|
D|----------------------|------------------------|
A|----------------------|------------------------|
E|----------------------|------------------------|

E|-------------------|------------------------|
B|-------------------|------------------------|
G|-6h7p6--7p6-----6--|--6p7--6--7--6----------|
D|-------------7-----|-----------------7---7--|
A|-------------------|------------------------|
E|-------------------|------------------------|

E|-------------------|------------------------|
B|-------------------|------------------------|
G|-6h7p6--7p6-----6--|--6h7p6--7--6-----------|
D|-------------7-----|---------------7--7-----|
A|-------------------|------------------------|
E|-------------------|------------------------|

E|---------------|----------------|
B|---------------|----------------|
G|-6h7p6---------|--6h7p6---------|
D|--------7--7---|---------7--7---|
A|---------------|----------------|
E|---------------|----------------|

Verso 1:


Well I just got into town ....
E|--------------------------------------|
B|-8---7----5--7------------------------|
G|-----------------5b-------------------|
D|----------------------7--5------------|
A|----------------------------7--6--5---|
E|--------------------------------------|

Took a look around see ....
E|--------------------------------------|
B|-8---7----5--7------------------------|
G|-----------------5b-------------------|
D|----------------------7--5------------|
A|----------------------------7--6--5---|
E|--------------------------------------|

With a little girl in ....
E|-----------------------------------------|
B|-----------------------------------------|
G|----------------------------------5~~----|
D|-7--5--7--5--7--5--7--5--7--5--7---------|
A|-----------------------------------------|
E|-----------------------------------------|

Are you a lucky ....
E|-----------------------------------------|
B|----------------------------------5~~----|
G|-7--6--7--6--7--6--7--6--7--6--7---------|
D|-----------------------------------------|
A|-----------------------------------------|
E|-----------------------------------------| 
Or just another lost angel, .....strike the                     
                                                  
Solo:

E|-----------------------------------------------|
B|-----------------------------------------------|
G|-------------------0-2-4-4b----4--2-----2~~~--|
D|-------------0-2-4------------------4----------|
A|-------0-2-4-----------------------------------|
E|-0-2-4-----------------------------------------|


E|---------------------------------------------------------------|
B|---------------------------------------------------------------|
G|-------0-2-4--4b--2-----2--4b--4--2-----4b---2-----2-----2--4-|
D|-0-2-4---------------4---------------4----------4-----4--------|
A|---------------------------------------------------------------|
E|---------------------------------------------------------------|


E|-0--5---5---5--7--5--7--7b--5-----5--7--5---7--7--7---|
B|-------------------------------7----------------------|
G|------------------------------------------------------|
D|------------------------------------------------------|
A|------------------------------------------------------|
E|------------------------------------------------------|


E|-9--9--9---10--10--10---9--9--9----97---7--7--7~~---|
B|------------------------------------------------------|
G|------------------------------------------------------|
D|------------------------------------------------------|
A|------------------------------------------------------|
E|------------------------------------------------------|


E|-75---5--5--5~~----53---|
B|--------------------------|
G|--------------------------|
D|--------------------------|
A|--------------------------|
E|--------------------------|


E|--------------------|-------------------|---------------|
B|--------------------|-------------------|---------------|
G|-6h7p6--7--6--7~~~--|-7p6--------6~---|-7--6----------|
D|--------------------|--------7----------|--------7---7--|
A|--------------------|-------------------|---------------|
E|--------------------|-------------------|---------------|


E|--------------------|
B|--------------------|
G|-6h7p6--7--6--------|
D|--------------7--7--|
A|--------------------|
E|--------------------|


LA Woman

 E|---------------------|
 B|---------------------|
 G|-7b----5--7--7b~~~---|
 D|---------------------|
 A|---------------------|
 E|---------------------|

LA Woman

 E|---------------------|
 B|-8br-----------------|
 G|--------5~~~~--------|
 D|---------------------|
 A|---------------------|
 E|---------------------|

LA Woman Sunday afternoon
E|-------------------------------------------|
B|-------------------------------------------|
G|----------------------------------5~~~-----|
D|-7--5--7--5--7--5--7--5--7--5--7-----------|
A|-------------------------------------------|
E|-------------------------------------------|

LA Woman ....
E|--------------------------------|
B|-7br----------------------------|
G|-7br---5-------5----------------|
D|----------7-------7-------------|
A|---------------------7--7~~~~---|
E|--------------------------------|

(Piano)

Aqui la guitarra se toca junto a la voz del cantante, en este caso jim morrison
E|------------------------|-------------------------|
B|-------2--0-------------|-------2--0--------------|
G|----2----------0-----0--|----2----------0-----0--|
D|-2----------------0-----|-2----------------0-----|
A|------------------------|-------------------------|
E|------------------------|-------------------------| 

Motel money ....
E|--------------------------------|
B|-5--7br-------------------------|
G|---------5--7---7---5-----5--7--|
D|-----------------------7--------|
A|--------------------------------|
E|--------------------------------|

Lets change the mood ...
E|------------------------------------------|
B|------5--8b---5---------------------------|
G|-7b--------------7br--5-------------------|
D|-------------------------7--5-------------|
A|--------------------------------7--6--5---|
E|------------------------------------------| 


Que te parecio? Calificalo con estrellas!!

Rating: 7.5/10 (80 votos)

Este fichero es trabajo propio de su transcriptor y representa su interpretación personal de la canción. El material contenido en esta página es para exclusivo uso privado, por lo que se prohibe su reproducción o retransmisión, así como su uso para fines comerciales.


Deja tus comentarios:
Letras de canciones | Musica Independiente