Acordes y tablaturas para guitarra

Acordes y Tablaturas
Usuario: Password:

Buscar:
Acordes y Tablaturas >> Letra S >> Acordes de Simple Plan >> Your Love Is A Lie
Acordes de Your Love Is A Lie, Simple Plan

Your Love Is A Lie

Simple Plan






do.la.mim.re.sol.
   
intro y versos

  Mim       Sol        Re      La       Mim       Sol       Re       La 
e|-----0--------------------------|-----0--------------------------| 
B|------0-------3-------3-------2-|------0-------3-------3-------2-| 
G|-------0-------------2-2-----2--|-------0-------------2-2-----2--| 
D|----2---2----0------0---0---2---|----2---2----0------0---0---2---| 
A|---2--------2------0-----0-0----|---2--------2------0-----0-0----| 
E|--0--------3--------------------|--0--------3--------------------|


o tambien sirve esta


Intro - Versos
e|---------------------------------------------------------------------------|
B|---------------------------------------------------------------------------|
G|----8----------------6-----------------------------------------------------|
D|-8---8-8------6---6---6-6-----6--------------------------------------------|6x
A|6-6---6-----4----4-4---4----6----------------------------------------------|
E|-----------2-2-------------4-4---------------------------------------------|

verso1:[intro]
I fall asleep by the telephone
It’s two o’clock and I’m waiting up alone
Tell me, where have you been?
I found a note with another name
You blow a kiss but it just don’t feel the same
Cause I can feel that you’re gone


precoro: 
Do                      Sol            Re                 Sol 
I can’t bite my tongue forever, while you try to play it cool. 
Do                        Sol                Re 
You can hide behind your stories, but don’t take me for a fool! 

Coro: 
 Mim                           Sol        Re          La 
You can tell me that there's nobody else [but I feel it!] 
 Mim                          Sol          Re             La 
You can tell me that you're home by yourself [but I see it!] 
 Mim                   Sol           Re            La          Do           Re 
You can look into my eyes and pretend all you want, but I know, I know 
Mim Sol Re La 
Your love is just a lie! [Lie! Lie!] 
Mim Sol Re La 
It's nothing but a lie! [Lie! Lie!] 


verso2:intro

You look so innocent,
But the guilt in your voice gives you away
Yeah, you know what I mean
How does it feel when you kiss when you know that I trust you
And do you think about me when he fucks you?
Could you be more obscene?

Coro: 
 Mim                           Sol        Re          La 
You can tell me that there's nobody else [but I feel it!] 
 Mim                          Sol          Re             La 
You can tell me that you're home by yourself [but I see it!] 
 Mim                   Sol           Re            La          Do           Re 
You can look into my eyes and pretend all you want, but I know, I know 
Mim Sol Re La 
Your love is just a lie! [Lie! Lie!] 
Mim Sol Re La 
It's nothing but a lie! [Lie! Lie!] 


solo:
 Mim     Sol     Re     La    Do
e|--0--|--3--|--2--|--0--|--0--|
B|--0--|--3--|--3--|--2--|--1--| 
G|--0--|--0--|--2--|--2--|--0--| 
D|--2--|--0--|--0--|--2--|--2--| 
A|--2--|--2--|--x--|--0--|--3--| 
E|--0--|--3--|--x--|--x--|--3--| 
de alli donde para todo se hace esto:
e|11------9------9----8------------------------------------------------------|
B|--11-11--11-11--9-9--9-9---------------------------------------------------|
G|----8------8-----8----8----------------------------------------------------|
D|---------------------------------------------------------------------------|
A|---------------------------------------------------------------------------|
E|---------------------------------------------------------------------------|


You can tell me that there’s nobody else
You can tell me that you’re home by yourself
You can look into my eyes and pretend all you want
but I know, I know
Your love is just a lie!
I know, you’re nothing but a lie! [Lie! Lie! Lie!]
You’re nothing but a a lie! [Lie! Lie! Lie!]
Your love is just a lie!

 

Que te parecio? Calificalo con estrellas!!

Rating: 8.9/10 (471 votos)

Este fichero es trabajo propio de su transcriptor y representa su interpretación personal de la canción. El material contenido en esta página es para exclusivo uso privado, por lo que se prohibe su reproducción o retransmisión, así como su uso para fines comerciales.


Deja tus comentarios:

Letras de Simple Plan
Letras de canciones | Musica Independiente