Enviado por: jona1810
Agrandar Letra
Reducir Letra
Imprimir

Acordes:
½ tono
| +0 |
½ tono
||
Volver

Otras Versiones de seguir viviendo sin tu amor:




Catupecu machu, seguir viviendo sin tu amor

||----4h5-------------||----4h5------------||  La h quiere decir que
||--2-----5-3-3h5-----||--2------5-3-2-----||  se desplaza la nota
||--------------------||-------------------||  Es muy facil!
||--------------------||-------------------||
||--------------------||-------------------||
||--------------------||-------------------||

||----4h5-------------||----------------------------------||
||--2------5-3-5h7----||--2-3-5-3-2-3h5h3-3h2-2h0-0-------||
||--------------------||-----------------------------2-1--||   E
||--------------------||----------------------------------||
||--------------------||----------------------------------||
||--------------------||----------------------------------||


Acordes con la INTRO:   A  F#m  D  E   [2 veces]


                   Si               Si 
Si a tu corazón yo llego igual
          Si    G#m
Todo siempre se podrá elegir
                    Fa#      Bm
No me escribas la pared
                    C#m7            Fa#
Sólo quiero estar entre tu piel

                Si 
Y si acaso no brillara el Sol 
        G#m
Y quedara yo atrapado aquí
    Fa#      Bm
No vería la razón
                   C#m7           Fa#
De seguir viviendo sin tu amor


D#
Y hoy que enloquecido vuelvo
   G#m
Buscando tu querer
   C#m7
No queda más que viento  oh oh
   Bm                      Fa#
No queda más que viento

                  Si 
Y si acaso no brillara el Sol 
                     G#m
Y quedara yo atrapado aquí
  Fa#    Bm
No vería la razón
               C#m7            Fa#
De seguir viviendo sin tu amor   ohh

SOLO
Sobre SOLO los acordes de la INTRO.


D#
Y hoy que enloquecido vuelvo
   G#m
Buscando tu querer
   C#m7
No queda más que viento  oh oh
   Bm                      Fa#
No queda más que viento

                  Si 
Y si acaso no brillara el Sol 
                     G#m
Y quedara yo atrapado aquí
  Fa#    Bm
No vería la razón
               C#m7            Fa#
De seguir viviendo sin tu amor   ohh

INTRO

  Fa#    Bm
No vería la razón
               C#m7            Fa#
De seguir viviendo sin tu amor   ohh

E 
Aviso: Este fichero es trabajo propio de su transcriptor y representa su interpretación personal de la canción. El material contenido en esta página es para exclusivo uso privado, por lo que se prohibe su reproducción o retransmisión, así como su uso para fines comerciales.
comentario del colaborador: Muy buen tema..

Califica esta canción


Comentarios en Facebook