Acordes y tablaturas para guitarra

Acordes y Tablaturas
Usuario: Password:

Buscar:
Acordes y Tablaturas >> Letra 4 >> Acordes de 4 y medio >> QUÉDATE
Tablatura de QUÉDATE, 4 y medio

QUÉDATE

4 y medio






QUÉDATE
e|----------------------------------------------|
B|----------------------------------------------|
G|--6-6-6-6-6-----------------------------------|
D|--6-6-6-6-6--8-8-8-8-8--6-6-6-6-6--4-4-4-4-4--|x2
A|--4-4-4-4-4--8-8-8-8-8--6-6-6-6-6--4-4-4-4-4--|
E|-------------6-6-6-6-6--4-4-4-4-4--2-2-2-2-2--|

Pre verso
e|--------------------
B|--------------------
G|--------------------
D|--4-4-4-4-4-4-4-4---
A|--------------------
E|--------------------

kedat, no me digas nada.......
e|---------------------------------------------------------------|
B|---------------------------------------------------------------|
G|---------------------------------------------------------------|
D|--4-4-4-4-4-4-4------------------------------------------------|
A|----------------6-6-6-6-6-6-6--4-4-4-4-4-4-4-4--2-2-2-2-2-2-2--|
E|---------------------------------------------------------------|

kiereme, como yo te estoy keriendo
e|----------------------------------------------|
B|----------------------------------------------|
G|--6-6-6-6-6-----------------------------------|
D|--6-6-6-6-6--8-8-8-8-8--6-6-6-6-6--4-4-4-4-4--|x2
A|--4-4-4-4-4--8-8-8-8-8--6-6-6-6-6--4-4-4-4-4--|
E|-------------6-6-6-6-6--4-4-4-4-4--2-2-2-2-2--|


luego tocan esto
e|----------------------------------------------|
B|----------------------------------------------|
G|--6-6-6-6-6-----------------------------------|
D|--6-6-6-6-6--8-8-8-8-8--6-6-6-6-6--4-4-4-4-4--|
A|--4-4-4-4-4--8-8-8-8-8--6-6-6-6-6--4-4-4-4-4--|
E|-------------6-6-6-6-6--4-4-4-4-4--2-2-2-2-2--|

me haces reir cuando todo esta mal.......
e|---------------------------------------------------------------|
B|---------------------------------------------------------------|
G|---------------------------------------------------------------|
D|--4-4-4-4-4-4-4------------------------------------------------|x2
A|----------------6-6-6-6-6-6-6--4-4-4-4-4-4-4-4--2-2-2-2-2-2-2--|
E|---------------------------------------------------------------|

me haces reir cuando todo esta mal.......
e|----------------------------------------------|
B|----------------------------------------------|
G|--6-6-6-6-6-----------------------------------|
D|--6-6-6-6-6--8-8-8-8-8--6-6-6-6-6--4-4-4-4-4--|x2
A|--4-4-4-4-4--8-8-8-8-8--6-6-6-6-6--4-4-4-4-4--|
E|-------------6-6-6-6-6--4-4-4-4-4--2-2-2-2-2--|



e|----------------------------------------------------|
B|-----------------------------------------------------|
G|--6-6-6-6-6------------------------------------------|
D|--6-6-6-6-6--8-8-8-8-8--6-6-6-6-6--4-4-4-4-4-4-4-4-4-|
A|--4-4-4-4-4--8-8-8-8-8--6-6-6-6-6--4-4-4-4-4-4-4-4-4-|
E|-------------6-6-6-6-6--4-4-4-4-4--2-2-2-2-2-2-2-2-2-|   

y luego dejan sonar 
e|------
B|------
G|--6---
D|--6---
A|--4---
E|------


kedat, abrazame, besame o acariciameeee..........
e|----------------------------------------------|
B|----------------------------------------------|
G|--6-6-6-6-6-----------------------------------|
D|--6-6-6-6-6--8-8-8-8-8--6-6-6-6-6--4-4-4-4-4--|x2
A|--4-4-4-4-4--8-8-8-8-8--6-6-6-6-6--4-4-4-4-4--|
E|-------------6-6-6-6-6--4-4-4-4-4--2-2-2-2-2--|

i cuando empiezan los gritos tocan esto
e|----------------------------------------------|
B|----------------------------------------------|
G|--6-6-6-6-6-----------------------------------|
D|--6-6-6-6-6--8-8-8-8-8--6-6-6-6-6--4-4-4-4-4--|x2
A|--4-4-4-4-4--8-8-8-8-8--6-6-6-6-6--4-4-4-4-4--|
E|-------------6-6-6-6-6--4-4-4-4-4--2-2-2-2-2--|

luego esto:
e|---------------------------------------------------------------|
B|---------------------------------------------------------------|
G|---------------------------------------------------------------|
D|--4-4-4-4-4-4-4------------------------------------------------|
A|----------------6-6-6-6-6-6-6--4-4-4-4-4-4-4-4--2-2-2-2-2-2-2--|
E|---------------------------------------------------------------|


e|----------------------------------------------|
B|----------------------------------------------|
G|--6-6-6-6-6-----------------------------------|
D|--6-6-6-6-6--8-8-8-8-8--6-6-6-6-6--4-4-4-4-4--|x2
A|--4-4-4-4-4--8-8-8-8-8--6-6-6-6-6--4-4-4-4-4--|
E|-------------6-6-6-6-6--4-4-4-4-4--2-2-2-2-2--|

sohloh bajo
esperat no me digas nada sohloh besame......


abrazame, mirame, scucha lo q st en tu corazón.........
e|----------------------|
B|----------------------|
G|--6-6-----------------|
D|--6-6--8-8--6-6--4-4--|x2
A|--4-4--8-8--6-6--4-4--|
E|-------6-6--4-4--2-2--|


Coro final
kedat, abrazame, besame o acariciameeee..........
e|----------------------------------------------|
B|----------------------------------------------|
G|--6-6-6-6-6-----------------------------------|
D|--6-6-6-6-6--8-8-8-8-8--6-6-6-6-6--4-4-4-4-4--|x3
A|--4-4-4-4-4--8-8-8-8-8--6-6-6-6-6--4-4-4-4-4--|
E|-------------6-6-6-6-6--4-4-4-4-4--2-2-2-2-2--|


weno eso es too!! i ps ojala les sirva carnales! cheken bn los times!! i tambn dediken sta rola a kien mas amen!! jeje!! ahí ia saben q dudas, reclamos, sugerencias o cualkier cosa scribanme a [email protected]    

KE VIVA EL EMO!!!


Que te parecio? Calificalo con estrellas!!

Rating: 5.4/10 (76 votos)

Este fichero es trabajo propio de su transcriptor y representa su interpretación personal de la canción. El material contenido en esta página es para exclusivo uso privado, por lo que se prohibe su reproducción o retransmisión, así como su uso para fines comerciales.


Deja tus comentarios:
Letras de canciones | Musica Independiente