Acordes y tablaturas para guitarra

Acordes y Tablaturas
Usuario: Password:

Buscar:
Acordes y Tablaturas >> Letra 3 >> Acordes de 3 doors down >> Landing In London
Tablatura de Landing In London, 3 doors down

Landing In London

3 doors down






Opening
Em
|--------------------------------------
|-------1-----0------------------------
|---------------------2h4--0----------
|---2-----2-----2---------------------
|--2-------2-----2---------------------
|-0-----------------------------------

Em
|--------------------------------------
|-------1-----0------------------------
|------------------------2--2h4--------
|----2----2------2---------------------
|---2-------2------2-------------------
|-0------------------------------------

Em
|--------------------------------------
|-------1-----0------------------------
|---------------------2h4--0----------
|---2-----2-----2---------------------
|--2-------2-----2---------------------
|-0-----------------------------------

First Verse

I woke up today...

Em                       G                       Am                       Em
|------------------------------------------------------------------------------------------
|--------------------------0--------------------0----1-------------------------------------
|-------0---------------0---------------------2---2-------------0-------0---------------0--
|----2----2----------0-------0--------------2---------------0h2-------2-------------0h2----
|---2-------------------------------2b--0---------------0h2---------2-----2----0h2---------
|-0---------0-----3-------------3---------------------------------0----------0-------------

All I could think about...

Em                       G                       Am                       Em
|------------------------------------------------------------------------------------------
|--------------------------0----------------------0----1-----------------------------------
|-------0---------------0-----------------------2---2-----------0-------0---------------0--
|----2----2----------0-------0--------------2---------------0h2-------2-------------0h2----
|---2-------------------------------2b--0---------------0h2---------2-----2----0h2---------
|-0---------0-----3-------------3---------------------------------0----------0-------------

If this keeps me away...

Em                       C                        D                      Em
|--------------------------------------------------0-----2-----3---------------------------
|--------------------------1------0--------------2-----2-----2-----------------------------
|-------0--------0-------0---0------0----2-----3-----3-----3-----------0--------------0----
|-----2---2----2-------2-------2------2------0-----------------------2------------0h2------
|---2----------------3---------------------------------------------2-----2----0h2----------
|-0---------0----------------------------------------------------0----------0--------------

You've got to understand...

Em                       C                        D                      Em
|--------------------------------------------------0-----2-----3---------------------------
|--------------------------1------0--------------2-----2-----2-----------------------------
|-------0--------0-------0---0------0----2-----3-----3-----3-----------0--------------0----
|-----2---2----2-------2-------2------2------0-----------------------2------------0h2------
|---2----------------3---------------------------------------------2-----2----0h2----------
|-0---------0----------------------------------------------------0----------0--------------

First Chorus
When the night falls...

Em                  C (strum)          Am (strum)         Em (strum)
|------------------------------------------------------------------------------------------
|---------------------1------------------1-------------------------------------------------
|-------0-------0-----0------------------2----------------0----------0--------------0------
|-----2---2---2-------2------------------2----------------2--------2-----------0h2---------
|---2-----------------3-----------------------------------2------2-----2---0h2-------------
|-0---------0---------------------------------------------0----0---------0-----------------

I'll use your light...

Em                  C (strum)          Am (strum)         Em (strum)
|----------------------------------------------------------------------------
|---------------------1------------------1-----------------------------------
|-------0-------0-----0------------------2----------------0------------------
|-----2---2---2-------2------------------2----------------2------------------
|---2-----------------3-----------------------------------2------------------
|-0---------0---------------------------------------------0------------------

Em
|--------------------------------------
|-------1-----0------------------------
|---------------------2h4--0----------
|---2-----2-----2---------------------
|--2-------2-----2---------------------
|-0-----------------------------------

Em
|--------------------------------------
|-------1-----0------------------------
|------------------------2--2h4--------
|----2----2------2---------------------
|---2-------2------2-------------------
|-0------------------------------------

Em
|--------------------------------------
|-------1-----0------------------------
|---------------------2h4--0-----------
|---2-----2-----2----------------------
|--2-------2-----2---------------------
|-0------------------------------------

Second Verse

Well L.A's gettin...

Em                       G                       Am                       Em
|-----------------------------------------------------------------------------------------
|--------------------------0--------------------0----1------------------------------------
|-------0---------------0---------------------2---2-------------0-------0---------------0-
|----2----2----------0-------0--------------2---------------0h2-------2-------------0h2---
|---2-------------------------------2b--0---------------0h2---------2-----2----0h2--------
|-0---------0-----3-------------3---------------------------------0----------0------------

I keep my head...

Em                       G                       Am                       Em
|-----------------------------------------------------------------------------------------
|--------------------------0--------------------0----1------------------------------------
|-------0---------------0---------------------2---2-------------0-------0---------------0-
|----2----2----------0-------0--------------2---------------0h2-------2-------------0h2---
|---2-------------------------------2b--0---------------0h2---------2-----2----0h2--------
|-0---------0-----3-------------3---------------------------------0----------0------------

And All these days...
(Strum)
Em   C   Am   Em

I need your love...
(strum)
Em   C   D    Em

When the Night...
(strum)
Em   C   Am   Em

I'll use your light
(strum)
Em   C   D

Solo Intro
Em

Solo
Em   C   Am   Em
Em   C   D    Em


|-------------------------------------------------------------------|
|--------------------7h8/10--10/12------------------------10-10/12--|
|----------------7h9-----------------9-9-9/11-11-11/12-12-----------|
|---------5h7/9-----------------------------------------------------|
|-----5h7-----------------------------------------------------------|
|-12---------------------------------------------------------------|

|-------------------------------/12-12-12-12--12-10-8-10-8-7-8-7-5-7-5-3---|
|-----12b-10-----12b-10--10h12------------------------------------------5--|
|--------------------------------------------------------------------------|
|--------------------------------------------------------------------------|
|--------------------------------------------------------------------------|
|--------------------------------------------------------------------------|

And All these days...
(Strum)
Em   C   Am   Em

I need your love...
(strum)
Em   C   D    Em

When the Night...
(strum)
Em   C   Am   Em

I'll use your light
(strum)
Em   C   D

Ending
Em
|--------------------------------------
|------1-----0------------------------
|---------------------2h4--0----------
|---2-----2-----2---------------------
|--2-------2-----2---------------------
|-0-----------------------------------

Em
|--------------------------------------
|-------1-----0------------------------
|------------------------2--2h4--------
|----2----2------2---------------------
|---2-------2------2-------------------
|-0------------------------------------

Em
|------------------------------------------------0--
|------1-----0----------------------------------0--
|---------------------2h4--0-------------0-------0--
|---2-----2-----2----------------------2---2-----2--
|--2-------2-----2-------------------2-------2---2--
|-0--------------------------------0-------------0--


Que te parecio? Calificalo con estrellas!!

Rating: 4.8/10 (60 votos)

Este fichero es trabajo propio de su transcriptor y representa su interpretación personal de la canción. El material contenido en esta página es para exclusivo uso privado, por lo que se prohibe su reproducción o retransmisión, así como su uso para fines comerciales.


Deja tus comentarios:
Letras de canciones | Musica Independiente