Enviado por: alexi
Agrandar Letra
Reducir Letra
Imprimir



Green Day, Wake me up when September ends

Wake me up when September ends

Intro:
e|---------------------------------------------------------|
B|------3-----3-------3-----3-------3-----3-------3-----3--|
G|----0-----0-------0-----0-------0-----0-------0-----0----|
D|--5-----5-------5-----5-------5-----5-------5-----5------|
A|---------------------------------------------------------|
E|---------------------------------------------------------|


Riff 1: 
e|---------------------------------------------------------|
B|------3-----3-------3-----3-------3-----3-------3-----3--|
G|----0-----0-------0-----0-------0-----0-------0-----0----|
D|--5-----5-------4-----4-------2-----2-------0-----0------|
A|---------------------------------------------------------|
E|---------------------------------------------------------|

Summer has come and passed
The innocent can never last

C          Cm             G
Wake me up when September ends

Riff 1
Like my fathers come to pass
Seven years has gone so fast

C          Cm             G      F#
Wake me up when September ends

Em             Bm
Here comes the rain again
C                 G      F#
Falling from the stars
Em             Bm        
Drenched in my pain again
  C             D
Becoming who we are

Riff 1
As my memory rests
But never forgets what I lost

C          Cm             G
Wake me up when September ends

Toca uma vez a intro sem distorção e depois com:

Riff 1 (c/ distorção)
Summer has come and passed
The innocent can never last

C5                        G5
Wake me up when September ends

Riff 1 (s/ distorção)
Ring out the bells again
Like we did when spring began

{Liga a distorção)
C5                        G5    F#5
Wake me up when September ends

E5             B5
Here comes the rain again
C5                G5    F#5
Falling from the stars
E5             B5 
Drenched in my pain again
  C5            D5
Becoming who we are

Riff 1 (s/ distorção)
As my memory rests
But never forgets what I lost

(Liga a distorção)
C5                        G5    F#5         
Wake me up when September ends

Solo: 
     E5              B5              C5
e|-------7-----7---7-----7-----7---7-----8-----8---8--|
B|---8-8---8-8---8---7-7---7-7---7---8-8---8-8---8----|

      G5       F#5
e|---10101010--10101010--------|
B|----8888-------7777----------|                 <--- casas 8 e 10; 7 e 10 tocadas juntas

    E5              B5              C5
e|------7-----7---7-----7-----7---7-----8-----8---8---|
B|--8-8---8-8---8---7-7---7-7---7---8-8---8-8---8-----| 

    D5       D5       D5       D5
e|----------------------------------------------------|
B|--88888888-77777777-88888888-77777777--8------------|
G|---------------------------------------x------------|
D|---------------------------------------5------------|

Intro

Riff 1 (s/ distorção)
Summer has come and passed 
The innocent can never last

(Liga a distorção)
C5                        G5
Wake me up when September ends

Riff 1 (c/ distorção)
Like my father´s come to pass
Twenty years has gone so fast

C5                        G5
Wake me up when September ends (x3)

Aviso: Este fichero es trabajo propio de su transcriptor y representa su interpretación personal de la canción. El material contenido en esta página es para exclusivo uso privado, por lo que se prohibe su reproducción o retransmisión, así como su uso para fines comerciales.
comentario del colaborador: esto esta bien loco agregame [email protected]

Califica esta canción


Comentarios en Facebook