Acordes y tablaturas para guitarra

Acordes y Tablaturas
Usuario: Password:

Buscar:
Acordes y Tablaturas >> Letra A >> Acordes de Alex campos >> al taller del maestro
Acordes de al taller del maestro, Alex campos

Al taller del maestro

Alex campos






am.c.dm.e.f.g.gm.
 Intro:

  |                         C                         |
e]|--------------0----------|-------------0-----------|
B]|--------1--------1-----1-|-------1--------1-----1--|
G]|-----0-------------------|----0--------------------|
D]|-----------3--------2----|----------3--------2-----|
A]|--3----------------------|-3-----------------------|
E]|-------------------------|-------------------------|

  |          G          |                     X 2 Veces
e]|---------------1-0---|
B]|-----0---0---------3-|
G]|---0-------0---------|
D]|-------2-----0-------|
A]|-----------------0-2-|
E]|-3-------------3-----|



Ay como me duele estar des-
  |                         C                         |
e]|--------------0----------|-------------0-----------|
B]|--------1--------1-----1-|-------1--------1-----1--|
G]|-----0-------------------|----0--------------------|
D]|-----------3--------2----|----------3--------2-----|
A]|--3----------------------|-3-----------------------|
E]|-------------------------|-------------------------|

pierto y no poder cantar
  |          G          |
e]|---------------1-0---|
B]|-----0---0---------3-|
G]|---0-------0---------|
D]|-------2-----0-------|
A]|-----------------0-2-|
E]|-3-------------3-----|

Cómo expresarte sin pa-
  |                         C                         |
e]|--------------0----------|-------------0-----------|
B]|--------1--------1-----1-|-------1--------1-----1--|
G]|-----0-------------------|----0--------------------|
D]|-----------3--------2----|----------3--------2-----|
A]|--3----------------------|-3-----------------------|
E]|-------------------------|-------------------------|

labras, me muero si no estás.
  |          G          |
e]|---------------1-0---|
B]|-----0---0---------3-|
G]|---0-------0---------|
D]|-------2-----0-------|
A]|-----------------0-2-|
E]|-3-------------3-----|

Que el tiempo pasa y todo
  |                         C                         |
e]|--------------0----------|-------------0-----------|
B]|--------1--------1-----1-|-------1--------1-----1--|
G]|-----0-------------------|----0--------------------|
D]|-----------3--------2----|----------3--------2-----|
A]|--3----------------------|-3-----------------------|
E]|-------------------------|-------------------------|

cambia, hoy lloro de soledad;
  |          G          |
e]|---------------1-0---|
B]|-----0---0---------3-|
G]|---0-------0---------|
D]|-------2-----0-------|
A]|-----------------0-2-|
E]|-3-------------3-----|

Que el sueño que llevo en el
  |                         C                         |
e]|--------------0----------|-------------0-----------|
B]|--------1--------1-----1-|-------1--------1-----1--|
G]|-----0-------------------|----0--------------------|
D]|-----------3--------2----|----------3--------2-----|
A]|--3----------------------|-3-----------------------|
E]|-------------------------|-------------------------|

alma de repente ya no está;
  |          G          |
e]|---------------1-0---|
B]|-----0---0---------3-|
G]|---0-------0---------|
D]|-------2-----0-------|
A]|-----------------0-2-|
E]|-3-------------3-----|

Que la sonrisa se ha mar-
  |                         C                         |
e]|--------------0----------|-------------0-----------|
B]|--------1--------1-----1-|-------1--------1-----1--|
G]|-----0-------------------|----0--------------------|
D]|-----------3--------2----|----------3--------2-----|
A]|--3----------------------|-3-----------------------|
E]|-------------------------|-------------------------|
                        Am  G
chado //mis lagrimas caerá--an//
  |          G
e]|-----------------------------|
B]|-----0---0---------0---0-----|
G]|---0-------0-----0-------0---|
D]|-------2-----0-------2-----0-|
A]|-----------------------------|
E]|-3-------------3-------------|


Coro:

C
                       G                     C
Al taller del maestro vengo, pues Él me curará
                      G                      Am
Me tomará entre sus brazos y cada herida sanará
                       G                         C
Las herramientas del maestro, mi alma Él remendará
                           G                         Dm
Martillo en mano y mucho fuego, aunque me duela ayudará
                   Am                         F
A conocerlo y entenderlo, a saber que nada merezco,
                      C                               Gm
Amar es más que un pretexto, es una entrega, es un negar
                   Dm                         Am  E
Más que aquel sentimiento, es la decisión de ama--ar

                       Am
Al taller del maestro vengo;
                        E
Ahí, ahí el sol se pondrá
                      Am
Al taller del maestro vengo;
                          E
Carpintero mi alma aquí está
                      Am
Al taller del maestro vengo;
                                       E
No importa el tiempo que allí he de estar

Al taller del maestro...

  |                         C                         |
e]|--------------0----------|-------------0-----------|
B]|--------1--------1-----1-|-------1--------1-----1--|
G]|-----0-------------------|----0--------------------|
D]|-----------3--------2----|----------3--------2-----|
A]|--3----------------------|-3-----------------------|
E]|-------------------------|-------------------------|

  |          G          |
e]|---------------1-0---|
B]|-----0---0---------3-|
G]|---0-------0---------|
D]|-------2-----0-------|
A]|-----------------0-2-|
E]|-3-------------3-----|

la cuerda net 

Que te parecio? Calificalo con estrellas!!

Rating: 8.2/10 (418 votos)

Este fichero es trabajo propio de su transcriptor y representa su interpretación personal de la canción. El material contenido en esta página es para exclusivo uso privado, por lo que se prohibe su reproducción o retransmisión, así como su uso para fines comerciales.


Deja tus comentarios:

Letras de Alex campos
Letras de canciones | Musica Independiente