Enviado por:
gnr_slash

Mana, Bendita Tu Luz

 INTRO

e-----------|-----------|-------------|---------------------|
B------3----|------3----|------3------|----------1----------|
G--------0--|--------2--|-------0-----|-----0------0--------|
D----0------|----0------|----4--------|----2---4-4-0--------|
A-----------|-----------|---2---------|--3----5-------------|
E--3--------|--2--------|-------------|---------------------|


e-----------|-----------|-------------|---------------------|
B------3----|------3----|------3------|-----------1---------|
G--------0--|--------2--|----0--------|-----0-------0-------|
D----0------|----0------|---4---------|---2-----4-4-0-------|
A-----------|-----------|--2----------|--3-----5------------|
E--3--------|--2--------|-------------|---------------------|




e-----------|-----------|-------------|---------------------|
B------3----|------3----|------3------|-----------1---------|
G-----0-----|-----2-----|----0--------|-----0-------0-------|
D----0------|----0------|---4---------|---2-----4-4-0-------|
A-----------|-----------|--2----------|--3-----5------------|
E--3--------|--2--------|-------------|---------------------|

        Bendito el lugar    y el motivo de estar ahí


e-----------|-----------|--------0------|---------------------|
B------3----|------3----|------3--3-----|-----------1---------|
G-----0-----|-----2-----|----0-0---0----|-----0-------0-------|
D----0------|----0------|---4-----------|---2-----4-4-0-------|
A-----------|-----------|--2------------|--3-----5------------|
E--3--------|--2--------|---------------|---------------------|

           Bendita la coincidencia....



e--3---3-----|0---0-2-----|0------0------|----------------|
B--3---3-----|3---3-3-----|1----3--1-----|----------1-----|
G--0-0-0-----|2-2-2-2-----|0--0-----0----|----0-------0---|
D--0-0-------|0-0---------|4-4-----------|--2-----4-4-0---|
A--2---------|0-----------|2-------------|-3-----5--------|
E--3---------|2-----------|--------------|----------------|


         Bendito el reloj que nos puso puntual, ahí ....



e--3---3-----|0---0-2------|0------0-----|----------------|
B--3---3-----|3---3-3-3----|1----3--1----|----------------|
G--0-0-0-----|2-2-2-2--2---|0--0-0---0---|----0-----0-----|
D--0-0-------|0-0----------|4-4----------|--2-----4-4-----|
A--2---------|0------------|2------------|-3-----5--------|
E--3---------|2------------|-------------|----------------|



ACORDES

Bendito el lugar    y el motivo de estar ahí

Bendita la coincidencia....
G       D                 C        D      G   
Bendito el reloj que nos puso puntual, ahí ....
D                 Em            C D
Bendita  sea  tuuu   presencia ....



Em       D             C     D   G
Bendito Dios por encontrarnos en el camino
Em             D        C         D
Y de quitarme esta soledad de mí destino


CORO
            G   D
Bendita la luz
            Am          C
Bendita la luz de tu mirada
            G   D
Bendita la luz
            Am          C                G
Bendita la luz de tu mirada desde el alma

sOLO:

e-----3-----2--|--0-0-0-2-3-5-3-5-7-8-10-7v-----|
B--------------|--------------------------------|
G-2/4---4/2----|--0-0-0-2-4-5-4-5-7-------------|
D—-------------|--------------------------------|
A--------------|--------------------------------|
E--------------|--------------------------------|

                                                 
e--7-8-10-7-8-10-10/12-10v---|-----7-5-5v-7-3v-5-2-------------|
B----------------------------|-----8-7-7v-8-5v-7-3-5-8v-7-5-3--|
G----------------------------|---7-----------------5-9v-7-5-4--|
D—---------------------------|---------------------------------|
A----------------------------|---------------------------------|
E----------------------------|---------------------------------|


[Acompañamiento]
G  D   Em   C   D     G D     Em       C    D   G

G               D
Benditos ojos que me esquivaban,
Em           D
Simulaban desdén que me ignoraba,
G             D
Y de repente sostienes la mirada,
Em           C
Di ran di ge rum  de Re Re


Em       D             C      G
Bendito Dios por encontrarnos en el camino,
Em             D        C         D
Y de quitarme esta soledad de mí destino


Coro

              G   D              Am          C
Bendita la luz     Bendita la luz de tu mirada
            G   D              Am            C
Bendita la luz     Bendita la luz de tu mirada oh…



G                       D/F#
Gloria divina de esta suerte, del Buen Tino
F                           Am             
De encontrarte justo ahí, en medio del camino.
D/F#                               G
Gloria al cielo de encontrarte ahora,
Em                  Am
llevarte mi soledad

                      Em  C           G
Y coincidir en mi destino, en el mismo destino…



            G   D              Am          C
Bendita la luz     Bendita la luz de tu mirada
            G   D              Am          C
Bendita la luz     Bendita la luz de tu mirada
            G   D             Am           C
Bendita mirada oh  Bendita mirada desde el alma

//:G   D,   Am   C//: Se repite hasta el fin
        
Tu mirada oh oh  [Bendita bendita bendita mirada
 
Bendita tu alma y bendita tu luz]
       
Tu mirada oh oh  [Oh no no digo es
              
tan bendita tu luz amor amor]
        
Tu mirada oh oh [Bendito el reloj y bendito el lugar

Benditos tus besos cerquita del mar!]

Tu mirada oh oh
          
[Amor amor que bendita tu mirada tu mirada amor]


 
Aviso: Este fichero es trabajo propio de su transcriptor y representa su interpretación personal de la canción. El material contenido en esta página es para exclusivo uso privado, por lo que se prohibe su reproducción o retransmisión, así como su uso para fines comerciales.

Califica esta canción


Comentarios en Facebook