Enviado por:
nor

Mana, Ana (unplugged)

Imprimir
Hola soy maury Bueno aqui esta la canion
de mana es mi primera cancion que la escribo
aun le falta unos arreglos pero ya lo ire modificando
espero que les guste y lo practiquen mucho
no es tan complicada saludos para
todos mia amigos …………(the brads)…

C#m   A     F#m    B     G#m    E
   4     0     2      2     4      0
   5     2     2      4     4      0
   6     2     2      4     4      1
   6     2     4      4     6      2
   4     0     4      2     6      2
   X     X     2      X     4      0

Intro:

e-I-44-44444-I-44-44444-I-00-00000-I-22-22222-I
B-I-55-44445-I-55-55555-I-00-00000-I-00-00000-I    esto se toca junto a
G-I-66-66666-I-66-44446-I-11-11112-I-22-22222-I    otra guitarra serian
D-I-66-66666-I-77-77777-I-22-22222-I-11-11111-I    dos aqui esta el ritmo
A-I-44-44444-I-44-44444-I-00-00000-I-22-22222-I     de la otra...
E-I-44-44444-I-44-44444-I-22-22222-I-00-00000-I

2ª GUITARRA

e-I-44-44444-I-44-44444-I-55-55555-I-77-77777-I
B-I-55-55555-I-55-55555-I-77-77777-I-44-44444-I
G-I-66-66666-I-66-66666-I-66-66666-I-44-44444-I
D-I-66-66666-I-77-77777-I-44-44444-I-44-44444-I
A-I-44-44444-I-44-44444-I-44-44444-I-66-66666-I
E-I-44-44444-I-44-44444-I-44-44444-I-77-77777-I




Estrofa:

Esto  pueden tocarla con el apotraste en el cuarto
Traste reemplazando al nº 4

e-I-44-04-I-44-04-I-00-00-I-22-02-I
B-I-55-05-I-55-05-I-00-00-I-00-00-I
G-I-66-06-I-66-06-I-11-01-I-22-02-I
D-I-66-06-I-77-07-I-22-02-I-11-01-I
A-I-44-04-I-44-04-I-00-00-I-22-02-I
E-I-44-04-I-44-04-I-22-02-I-00-00-I

2ªGUITARRA

e-I-44-04-I-44-04-I-55-05-I-77-07-I  aqui tambien son
B-I-55-05-I-55-05-I-77-07-I-44-04-I  dos guitarras
G-I-66-06-I-66-06-I-66-06-I-44-04-I  para que el sonido
D-I-66-06-I-77-07-I-44-04-I-44-04-I  igual al del cd´
A-I-44-04-I-44-04-I-44-04-I-66-06-I
E-I-44-04-I-44-04-I-44-04-I-77-07-I


2ª estrofa :


e-I-44-44444-I-44-44444-I-00-00000-I-22-22222-I
B-I-55-44444-I-55-55555-I-00-00000-I-00-00000-I
G-I-66-66666-I-66-44444-I-11-11111-I-22-22222-I
D-I-66-66666-I-77-77777-I-22-22222-I-11-11111-I
A-I-44-44444-I-44-44444-I-00-00000-I-22-22222-I
E-I-44-44444-I-44-44444-I-22-22222-I-00-00000-I

2ª GUITARRA

e-I-44-44444-I-44-44444-I-55-55555-I-77-77777-I
B-I-55-55555-I-55-55555-I-77-77777-I-44-44444-I  en total son como
G-I-66-66666-I-66-66666-I-66-66666-I-44-44444-I  como dos guitarras
D-I-66-66666-I-77-77777-I-44-44444-I-44-44444-I
A-I-44-44444-I-44-44444-I-44-44444-I-66-66666-I
E-I-44-44444-I-44-44444-I-44-44444-I-77-77777-I



Coro

              G#m                           A
E |----------------------------|---------------------------
B |--------4-----4-----4-----4-|---------------------------
G |------4-----4-----4-----4---|-------6-----6-----6-----6-
D |----6-----------------------|-----7-----7-----7-----7---
A |----------------------------|---7-----------------------
E |--4-------4-----4-----4-----|-5-------5-----5-----5-----

                E                            B




E |----------------------------|---------------------------
B |--------0-----0-----0-----0-|-------------------7-------
G |------1-----1-----1-----1---|-------8----8----8---9-8---
D |----2-----------------------|-----9----9----9---------9-
A |----------------------------|---9-----------------------
E |--0-------0-----0-----0-----|-7-------7-----7-----------



               G#m                          A
E |----------------------------|---------------------------
B |--------4-----4-----4-----4-|---------------------------
G |------4-----4-----4-----4---|-------6-----6-----6-----6-
D |----6-----------------------|-----7-----7-----7-----7---
A |----------------------------|---7-----------------------
E |--4-------4-----4-----4-----|-5-------5-----5-----5-----

                 E                           B
E |----------------------------|---------------------------
B |--------0-----0-----0-----0-|-------------------7-------
G |------1-----1-----1-----1---|-------8----8----8---9-8---
D |----2-----------------------|-----9----9----9---------9-
A |----------------------------|---9-----------------------
E |--0-------0-----0-----0-----|-7-------7-----7-----------









Estrofa 3



e-I----------I----------I-------5-I---------I
B-I-----4-5--I-----4-5--I-----7---I-------7-I
G-I---6------I---6------I---6-----I-----8---I
D-I-6--------I-7--------I-4-------I---9-----I
A-I----------I----------I---------I-9-------I
E-I----------I----------I---------I---------I





Estrofa 4


e-I-44-44444-I-44-44444-I-00-00000-I-22-22222-I
B-I-55-44444-I-55-55555-I-00-00000-I-00-00000-I
G-I-66-66666-I-66-44444-I-11-11111-I-22-22222-I
D-I-66-66666-I-77-77777-I-22-22222-I-11-11111-I
A-I-44-44444-I-44-44444-I-00-00000-I-22-22222-I
E-I-44-44444-I-44-44444-I-22-22222-I-00-00000-I

2ª GUITARRA

e-I-44-44444-I-44-44444-I-55-55555-I-77-77777-I
B-I-55-55555-I-55-55555-I-77-77777-I-44-44444-I
G-I-66-66666-I-66-66666-I-66-66666-I-44-44444-I
D-I-66-66666-I-77-77777-I-44-44444-I-44-44444-I
A-I-44-44444-I-44-44444-I-44-44444-I-66-66666-I
E-I-44-44444-I-44-44444-I-44-44444-I-77-77777-I



coro

              G#m                           A
E |----------------------------|---------------------------
B |--------4-----4-----4-----4-|---------------------------
G |------4-----4-----4-----4---|-------6-----6-----6-----6-
D |----6-----------------------|-----7-----7-----7-----7---
A |----------------------------|---7-----------------------
E |--4-------4-----4-----4-----|-5-------5-----5-----5-----


                    E                            B
E |----------------------------|---------------------------
B |--------0-----0-----0-----0-|-------------------7-------
G |------1-----1-----1-----1---|-------8----8----8---9-8---
D |----2-----------------------|-----9----9----9---------9-
A |----------------------------|---9-----------------------
E |--0-------0-----0-----0-----|-7-------7-----7-----------

                G#m                          A
E |----------------------------|---------------------------
B |--------4-----4-----4-----4-|---------------------------
G |------4-----4-----4-----4---|-------6-----6-----6-----6-
D |----6-----------------------|-----7-----7-----7-----7---
A |----------------------------|---7-----------------------
E |--4-------4-----4-----4-----|-5-------5-----5-----5-----

                 E                           B
E |----------------------------|---------------------------
B |--------0-----0-----0-----0-|-------------------7-------
G |------1-----1-----1-----1---|-------8----8----8---9-8---
D |----2-----------------------|-----9----9----9---------9-
A |----------------------------|---9-----------------------
E |--0-------0-----0-----0-----|-7-------7-----7-----------


Solo:

  C#m          A
|----------------7/9-9-9---|
|-----------5----7/9-9-9-7-|
|-4/6-6-4-6----------------|
|--------------------------|
|--------------------------|
|--------------------------|

  F#m                                   B
|-7/9--9-11----9-11-12-9-11----9---------------------------------|
|-----------12--------------12---10-9-8-----9--------------------|
|---------------------------------------11----11-9-8------11~-11-|
|----------------------------------------------------11-9--------|
|----------------------------------------------------------------|
|----------------------------------------------------------------|

     C#m                           (A)
|-x-x-9-x-11-x-12-x-12-x-12-12-|
|------------------------------|
|-x-x-6-x--8-x--9-x--9-x--9--9-|   X 2
|------------------------------|
|------------------------------|
|------------------------------|

  F#m                      B
|-14-x-12-x-11-x-9-x-12-x-11-x-9-x-7-x-5-x-4-|
|--------------------------------------------|
|-11-x--9-x--8-x-6-x--9-x--8-x-6-x-4-x-2-x-1-|
|--------------------------------------------|
|--------------------------------------------|
|--------------------------------------------|
Fin…
Cualquier duda comentario  les elro en mi E-mail [email protected]
                                                I-----THE BRADS------I
Aviso: Este fichero es trabajo propio de su transcriptor y representa su interpretación personal de la canción. El material contenido en esta página es para exclusivo uso privado, por lo que se prohibe su reproducción o retransmisión, así como su uso para fines comerciales.
comentario del colaborador: lacuerda.net

Califica esta canción


Comentarios en Facebook