Acordes y tablaturas para guitarra

Acordes y Tablaturas
Usuario: Password:

Buscar:
Acordes y Tablaturas >> Letra A >> Acordes de Amen >> Decir Adios
Tablatura de Decir Adios, Amen

Decir Adios

Amen






Decir Adios - Amen


 Intro
 E|-----------------|
 B|-----------------|
 G|--------0--------|
 D|---0h2-----0-----|
 A|--------------0--|
 E|----------------3|


 Arpegio

     Decir  adios               fue dificil para mi
     G          D            Em             Bm
 e|----3-----3------0--------------0--------2--2-2-
 B|------3------3-----3--------------0------3--3-3-
 G|--0-----0------2-----2-------0------0----4--4-4-
 D|-----------------------0--------------2--4--4-4-
 A|---------------------------2-------------2--2-2-
 E|-----------------------------------------2--2-2-

     por que te    quise desde   que te conoci
      C            G             D
  ---------0------------3-----3-2------3-2-----|
  -------1---1--------3---3-----3----3----3----|
  -----0------0-----0-------0---2--2--------2--|
  --------------2------------------------------|
  ---3------------2----------------------------|
  ---------------------------------------------|


 e|------------------|
 B|------------------|
 G|---5/7--7/5--4----|
 D|---7/9--9/7--5----|
 A|------------------|
 E|------------------|



 Estoy aqui
 G        D
            E|--3/5/3-------|
            B|--3/5/3-------|
            G|--x-x-x-------|
            D|--------------|
            A|--------------|
            E|--------------|


        pensando  solo en ti y tus    recuerdos lo son    todo para mi
     Em            Bm       C            G                D
 e|-------0--------2--2-2---------0-------------3------3--2------3-2-----|
 B|---------0------3--3-3-------1---1--------3----3-------3----3----3----|
 G|----0------0----4--4-4-----0------0-----0--------0-----2--2--------2--|
 D|-------------2--4--4-4--------------2---------------------------------|
 A|--2-------------2--2-2---3------------2-------------------------------|
 E|----------------2--2-2------------------------------------------------|



 E|--------|
 B|--------|
 G|--------|
 D|--------|
 A|-0-2-3--|
 E|--------|


 De que sirve querer si despues vas a fallar
 C                        G
 no quise terminar pero lo tengo que aceptar
 C                        D


 Arpegio:

 Tu ausencia ya
 G           D
 puso en llanto mi corazon
 Em                 Bm
 con el recuerdo que tuvimos tu y yo
 C              G               D
 Pasaran los dias
 G               D
 y tu voz quedara en cada rincon
 Em               Bm D*
 y esos susurros cuando haciamos el amor
 C        G            D
 Dificil de pensar que ya nunca volveras
 C                        G
 tus alas volaran y en otro cielo sufriran
 C                        D


 coro:

    Y la verdad es que me siento solo
 G            D                  Em
 pues nunca te podre olvidar
             C
    Y la verdad es que me siento libre
 G            D                  Em
 aunque las noches sean de soledad
             C
    Y la verdad es que te llevo adentro
 G            D                  Em
 pues ocupaste tu lugar
          C
    Y por tu bien espero que no vuelvas
 G             D                 Em
 pues la vas a pasar muy mal
            C


SOLO:

    G                      D
 e|------------------------------------
 B|------------------------8-7-5----5~-
 G|--------4-5-4-----------------7-----
 D|---5-7--------7-5------------------
 A|------------------------------------
 E|------------------------------------

    E              Bm
 e|-0-----0--------2--2-2--------------
 B|-0-------0------3--3-3--------------
 G|-0---2-----0----4--4-4--------------
 D|-2-2---------2--4--4-4--------------
 A|-2--------------2--2-2--------------
 E|-0--------------2--2-2--------------

    C         G
 e|-----3--5~-----3---3-3--------------
 B|-3/5------ 3/5----------5/3---------
 G|------------------------------------
 D|------------------------------------
 A|------------------------------------
 E|------------------------------------

    D
 e|-------10---------12---------14---------15--
 B|--------------------------------------------
 G|-10/11----11-11/12---12-12/14---14 14/16----
 D|--------------------------------------------
 A|--------------------------------------------
 E|--------------------------------------------

     C                         G
 e|----------------------------12-10----------12-10-------------
 B|----------10~-10~--------8--------12-10~-8-------12-10~-8---8
 G|----------------------------------------------------------9--
 D|--8~-8~-----------8~-~8--------------------------------------
 A|-------------------------------------------------------------
 E|-------------------------------------------------------------

     B7     C         Cm7     D
 e|--10/12--8-10---------------------7/8/7---
 B|--------------10~-8-----------------------
 G|-----------------------5/4--7~------------
 D|------------------------------------------
 A|------------------------------------------
 E|------------------------------------------


 Donde estaras
 no me llega a interesar
 pues tu bien sabes me la tienes que pagar

 Y lloraras
 es tu conciencia envenenada
 esta acabando lentamente con tu alma

 Pero la verdad no te deseo ningun mal
 pues algun cabron ya te las hara pagar ohhhh

 Repite coro:

 Pues habra otra ocupando tu lugar
 Em            C        D     G


Que te parecio? Calificalo con estrellas!!

Rating: 6.8/10 (96 votos)

Este fichero es trabajo propio de su transcriptor y representa su interpretación personal de la canción. El material contenido en esta página es para exclusivo uso privado, por lo que se prohibe su reproducción o retransmisión, así como su uso para fines comerciales.


Deja tus comentarios:
Letras de canciones | Musica Independiente