Acordes y tablaturas para guitarra

Acordes y Tablaturas
Usuario: Password:

Buscar:
Acordes y Tablaturas >> Letra a >> Acordes de anette moreno >> guardian de mi corazon
Tablatura de guardian de mi corazon, anette moreno

Guardian de mi corazon

Anette moreno






Intro:

e--14-14-14-14-12---------------12-12h14---14-14-14-14-12-------------
B-----------------15-14------15---------------------------15-14-------
G-----------------------14--------------------------------------14----
D---------------------------------------------------------------------
A---------------------------------------------------------------------
E---------------------------------------------------------------------


e---------------------------------------------------------------------
B---------------------------------------------------------------------
G-12-14-14/16---14h16-14---11-11h12---14-14h16---12-12h14-12-11-------
D---------------------------------------------------------------14-12-
A---------------------------------------------------------------------
E---------------------------------------------------------------------

1º Estrofa:

e-----------------------------------------------------------
B-----------------------------------------------------------
G-----------------------------------------------------------
D----------------------------11-11h12-14-11-11h12-----------
A-----------------------------------------------------------
E-----------------------------------------------------------
    Como un día sin el sol


e-----------------------------------------------------------
B-----------------------------------------------------------
G-----------------------------------------------------------
D---------------------------------16-16-16-16-14-11-11h12---
A-----------------------------------------------------------
E-----------------------------------------------------------
    como una noche sin estrellas


e-----------------------------------------------------------
B-----------------------------------------------------------
G-----------------------------------------------------------
D-------------------------11-11h12-14-11-11h12--------------
A-----------------------------------------------------------
E-----------------------------------------------------------
    así es una ilusión


e-----------------------------------------------------------
B-----------------------------------------------------------
G-----------------------------------------------------------
D----------------------------16-16-16-16-14-11-11h12--------
A-----------------------------------------------------------
E-----------------------------------------------------------
    que no puedes tenerla


    Se despierta el furor guardado en mi corazón
    pero nadie me oye, el silencio triunfó


   A(para la otra guitarra)
e---------------------------0-------------------------------
B-------------------------2---------------------------------
G-----------------------2-----------------------------------
D---------------------2--------12-12h11-11-11-----14-12-----
A-------------------0---------------------------------------
E-----------------------------------------------------------
    otra vez me mudó


e-----------------------------------------------------------
B-----------------------------------------------------------
G-----------------------------------------------------------
D-------------------------------11-11h12-14-11-11h12--------
A-----------------------------------------------------------
E-----------------------------------------------------------
    Quiero curar mis heridas


e-----------------------------------------------------------
B-----------------------------------------------------------
G-----------------------------------------------------------
D-------------------------16-16-16-16-14-11-11h12-----------
A-----------------------------------------------------------
E-----------------------------------------------------------
    pero no por encima


e-----------------------------------------------------------
B-----------------------------------------------------------
G-----------------------------------------------------------
D-------------------------------11-11h12-14-11-11h12--------
A-----------------------------------------------------------
E-----------------------------------------------------------
    quiero quemar el veneno


e-----------------------------------------------------------
B-----------------------------------------------------------
G-----------------------------------------------------------
D-------------------------16-16-16-16-14-11-11h12-----------
A-----------------------------------------------------------
E-----------------------------------------------------------
    para tener la verdad.


e-----------------------------------------------------------
B-----------------------------------------------------------
G-----------------------------------------------------------
D------------------14-14-12-11------------16-16-14-12-------
A-----------------------------------------------------------
E-----------------------------------------------------------
    Así quiero sanar del cuchillo profundo sacando los


e-----------------------------------------------------------
B-----------------------------------------------------------
G-----------14-12-12-------------12-12-11-11----------------
D--------------------------------------------------16-14-14-
A-----------------------------------------------------------
E-----------------------------------------------------------
    gusanos que me comen el alma que me hacen llorar.


Coro:

    Guardián de la Puerta de Amor


e-----------------------------------------------------------
B-----------------------------------------------------------
G-----------------------------------------------------------
D-------------------------------------13-14-16--------------
A-----------------------------------------------------------
E-----------------------------------------------------------
    déjame entrar, necesito tu calor,


    quiero acariciar mi estrella otra vez.
    Guardián de la Puerta de Valor,


e-----------------------------------------------------------
B-----------------------------------------------------------
G-----------------------------------------------------------
D---------------------------------------13-14-16------------
A-----------------------------------------------------------
E-----------------------------------------------------------
    dejame entrar, para decirle a Dios,


    que ya no aguanto más,  lo que es la realidad.
    Por favor Guardián, Guardián de mi corazón,
    de mi corazón.


e--14-14-14-14-12---------------12-12h14---14-14-14-14-12-------------
B-----------------15-14------15---------------------------15-14-------
G-----------------------14--------------------------------------14----
D---------------------------------------------------------------------
A---------------------------------------------------------------------
E---------------------------------------------------------------------
                           de mi corazón


2º Estrofa

e---------------------------------12-12--------------14-14-12---------
B---------------------------------------15-14-----------------15------
G-12-14-14/16---------------------------------------------------------
D---------------------------------------------------------------------
A---------------------------------------------------------------------
E---------------------------------------------------------------------
                 Necesito tu Amor, necesito tu calor


e---------------------17-17-15-15-----------15-15-14-14----12-12------
B----------------------------------------------------------------15-14
G---------------------------------------------------------------------
D---------------------------------------------------------------------
A---------------------------------------------------------------------
E---------------------------------------------------------------------
   necesito mi estrella, Guardián de la Puerta dejadme entrar.


    Guardián de la Puerta de Valor,


e----------------------------------------------------------------
B--------------------------------------12-12-12-12---------------
G--------------------------------------------------14-11-11h12---
D----------------------------------------------------------------
A----------------------------------------------------------------
E----------------------------------------------------------------
    dejame entrar, para decirle a Dios,


e----------------------------------------------------------------
B----------------------------------------------------------------
G-------------------14h16-14------14-16--------------------------
D---------------------------------------16-16-14-14-14-11-12h11--
A----------------------------------------------------------------
E----------------------------------------------------------------
    que ya no aguanto más,                  lo que es la realidad


    Por favor Guardián, Guardián de mi corazón,
    de mi corazón.


e--14-14-14-14-12---------------12-12h14-------------------------
B-----------------15-14------15----------------------------------
G-----------------------14---------------------------------------
D----------------------------------------------------------------
A----------------------------------------------------------------
E----------------------------------------------------------------
                          De mi corazon


e--14-14-14-14-12---------------12-12h14-------------------------
B-----------------15-14------15----------------------------------
G-----------------------14---------------------------------------
D----------------------------------------------------------------
A----------------------------------------------------------------
E----------------------------------------------------------------
                                        sharararara


e--14-14-14-14-12------------------------------------------------
B-----------------15-14------------14-15-17-15-14----------------
G------------------------14-----------------------14-14----14h16-
D-------------------------------------------------------16-------
A----------------------------------------------------------------
E----------------------------------------------------------------
                         Sharararara


Que te parecio? Calificalo con estrellas!!

Rating: 6.6/10 (131 votos)

Este fichero es trabajo propio de su transcriptor y representa su interpretación personal de la canción. El material contenido en esta página es para exclusivo uso privado, por lo que se prohibe su reproducción o retransmisión, así como su uso para fines comerciales.


Deja tus comentarios:
Letras de canciones | Musica Independiente