Enviado por:
luiggisanchez

Reik, Sabes

intro

---------------|--------------|---------1----|--------------| 
----------3--1-|--------------|-----------4--|-------1------|
-------0-------|--------3--1--|-----3--------|---------3----|
---------------|--------------|-1------------|-----3--------|
---3-----------|------3-------|--------------|-1------------|
---------------|--4-----------|--------------|--------------|


---------------|--------------|---------1----|-1------------| 
----------3--1-|--------------|-----------4--|-1------------|
-------0-------|--------3--1--|-----3--------|-3------------|
---------------|--------------|-1------------|-3------------|
---3-----------|------3-------|--------------|-1------------|
---------------|--4-----------|--------------|--------------|

primera estrofa


       D#             D#             G#             G#
--6--6---6--6--|--6--6---6--6-|--4--4--4--4--|--4--4---4--4--| 
--8--8---8--8--|--8--8---8--8-|--4--4--4--4--|--4--4---4--4--|
--8--8---8--8--|--8--8---8--8-|--5--5--5--5--|--5--5---5--5--|
--8--8---8--8--|--8--8---8--8-|--6--6--6--6--|--6--6---6--6--|
--6--6---6--6--|--6--6---6--6-|--6--6--6--6--|--6--6---6--6--|
---------------|--------------|--------------|---------------|
Sabes no pido nada mas......

     D#             D#             G#             G#
--6--6---6--6--|--6--6---6--6-|--4--4--4--4--|--4--4---4--4--| 
--8--8---8--8--|--8--8---8--8-|--4--4--4--4--|--4--4---4--4--|
--8--8---8--8--|--8--8---8--8-|--5--5--5--5--|--5--5---5--5--|
--8--8---8--8--|--8--8---8--8-|--6--6--6--6--|--6--6---6--6--|
--6--6---6--6--|--6--6---6--6-|--6--6--6--6--|--6--6---6--6--|
---------------|--------------|--------------|---------------|
y huir de todo mal....

       Fm             Cm              A#           A#
--1--1---1--1--|--3--3---3--3-|--1--1--1--1--|--1-----1----| 
--1--1---1--1--|--4--4---4--4-|--3--3--3--3--|--3-----3----|
--1--1---1--1--|--5--5---5--5-|--3--3--3--3--|--3-----3----|
--3--3---3--3--|--5--5---5--5-|--3--3--3--3--|--3-----3----|
--3--3---3--3--|--3--3---3--3-|--1--1--1--1--|--1-----1----|
---------------|--------------|--------------|-------------|
por estar junto....

       D#             D#             G#             G#
--6--6---6--6--|--6--6---6--6-|--4--4--4--4--|--4--4---4--4--| 
--8--8---8--8--|--8--8---8--8-|--4--4--4--4--|--4--4---4--4--|
--8--8---8--8--|--8--8---8--8-|--5--5--5--5--|--5--5---5--5--|
--8--8---8--8--|--8--8---8--8-|--6--6--6--6--|--6--6---6--6--|
--6--6---6--6--|--6--6---6--6-|--6--6--6--6--|--6--6---6--6--|
---------------|--------------|--------------|---------------|
sabes no dejo de pensar....

    D#             D#             G#             G#
--6--6---6--6--|--6--6---6--6-|--4--4--4--4--|--4--4---4--4--| 
--8--8---8--8--|--8--8---8--8-|--4--4--4--4--|--4--4---4--4--|
--8--8---8--8--|--8--8---8--8-|--5--5--5--5--|--5--5---5--5--|
--8--8---8--8--|--8--8---8--8-|--6--6--6--6--|--6--6---6--6--|
--6--6---6--6--|--6--6---6--6-|--6--6--6--6--|--6--6---6--6--|
---------------|--------------|--------------|---------------|
te quiero confesar

       Fm             Cm              A#           A#
--1--1---1--1--|--3--3---3--3-|--1--1--1--1--|--1-----1----| 
--1--1---1--1--|--4--4---4--4-|--3--3--3--3--|--3-----3----|
--1--1---1--1--|--5--5---5--5-|--3--3--3--3--|--3-----3----|
--3--3---3--3--|--5--5---5--5-|--3--3--3--3--|--3-----3----|
--3--3---3--3--|--3--3---3--3-|--1--1--1--1--|--1-----1----|
---------------|--------------|--------------|-------------|
que soy solo un esclavo....

CORO

       Cm             G#              D#             A#
--3--3---3--3--|--4--4---4--4-|--6--6--6--6--|--1--1---1--1--| 
--4--4---4--4--|--4--4---4--4-|--8--8--8--8--|--3--3---3--3--|
--5--5---5--5--|--5--5---5--5-|--8--8--8--8--|--3--3---3--3--|
--5--5---5--5--|--6--6---6--6-|--8--8--8--8--|--3--3---3--3--|
--3--3---3--3--|--6--6---6--6-|--6--6--6--6--|--1--1---1--1--|
---------------|--------------|--------------|---------------|
cuando llegastes tu......

      Cm             G#              D#             A#
--3--3---3--3--|--4--4---4--4-|--6--6--6--6--|--1--1---1--1--| 
--4--4---4--4--|--4--4---4--4-|--8--8--8--8--|--3--3---3--3--|
--5--5---5--5--|--5--5---5--5-|--8--8--8--8--|--3--3---3--3--|
--5--5---5--5--|--6--6---6--6-|--8--8--8--8--|--3--3---3--3--|
--3--3---3--3--|--6--6---6--6-|--6--6--6--6--|--1--1---1--1--|
---------------|--------------|--------------|---------------|
Encendistes la luz.....

      Fm           Fm    Gm G#       G#          G#    Gm Fm
--1--1---1--1--|--1--1---3--4-|--4--4--4--4--|--4--4---3--1--| 
--1--1---1--1--|--1--1---3--4-|--4--4--4--4--|--4--4---3--1--|
--1--1---1--1--|--1--1---0--5-|--5--5--5--5--|--5--5---0--1--|
--3--3---3--3--|--3--3---0--6-|--6--6--6--6--|--6--6---0--3--|
--3--3---3--3--|--3--3---1--6-|--6--6--6--6--|--6--6---1--3--|
---------------|--------------|--------------|---------------|
Tanto tiempo busque...

      Fm             G#m              D#             A#
--1--1---1--1--|--4--4---4--4-|--6--6--6--6--|--1--1---1--1--| 
--1--1---1--1--|--4--4---4--4-|--8--8--8--8--|--3--3---3--3--|
--1--1---1--1--|--4--4---4--4-|--8--8--8--8--|--3--3---3--3--|
--3--3---3--3--|--6--6---6--6-|--8--8--8--8--|--3--3---3--3--|
--3--3---3--3--|--6--6---6--6-|--6--6--6--6--|--1--1---1--1--|
---------------|--------------|--------------|---------------|
Tan perfecta.....


CORO 2

       Cm             G#              D#             A#
--3--3---3--3--|--4--4---4--4-|--6--6--6--6--|--1--1---1--1--| 
--4--4---4--4--|--4--4---4--4-|--8--8--8--8--|--3--3---3--3--|
--5--5---5--5--|--5--5---5--5-|--8--8--8--8--|--3--3---3--3--|
--5--5---5--5--|--6--6---6--6-|--8--8--8--8--|--3--3---3--3--|
--3--3---3--3--|--6--6---6--6-|--6--6--6--6--|--1--1---1--1--|
---------------|--------------|--------------|---------------|
como aguja en un pajar......

      Cm             G#              D#             A#
--3--3---3--3--|--4--4---4--4-|--6--6--6--6--|--1--1---1--1--| 
--4--4---4--4--|--4--4---4--4-|--8--8--8--8--|--3--3---3--3--|
--5--5---5--5--|--5--5---5--5-|--8--8--8--8--|--3--3---3--3--|
--5--5---5--5--|--6--6---6--6-|--8--8--8--8--|--3--3---3--3--|
--3--3---3--3--|--6--6---6--6-|--6--6--6--6--|--1--1---1--1--|
---------------|--------------|--------------|---------------|
como huella en el mar.....

      Fm           Fm    Gm G#       G#          G#    Gm Fm
--1--1---1--1--|--1--1---3--4-|--4--4--4--4--|--4--4---3--1--| 
--1--1---1--1--|--1--1---3--4-|--4--4--4--4--|--4--4---3--1--|
--1--1---1--1--|--1--1---0--5-|--5--5--5--5--|--5--5---0--1--|
--3--3---3--3--|--3--3---0--6-|--6--6--6--6--|--6--6---0--3--|
--3--3---3--3--|--3--3---1--6-|--6--6--6--6--|--6--6---1--3--|
---------------|--------------|--------------|---------------|
Tanto tiempo busque...

      Fm             G#m              D#             A#
--1--1---1--1--|--4--4---4--4-|--6--6--6--6--|--1--1---1--1--| 
--1--1---1--1--|--4--4---4--4-|--8--8--8--8--|--3--3---3--3--|
--1--1---1--1--|--4--4---4--4-|--8--8--8--8--|--3--3---3--3--|
--3--3---3--3--|--6--6---6--6-|--8--8--8--8--|--3--3---3--3--|
--3--3---3--3--|--6--6---6--6-|--6--6--6--6--|--1--1---1--1--|
---------------|--------------|--------------|---------------|
Tan perfecta.....


INTRO

segunda estrofa

       D#             D#             G#             G#
--6--6---6--6--|--6--6---6--6-|--4--4--4--4--|--4--4---4--4--| 
--8--8---8--8--|--8--8---8--8-|--4--4--4--4--|--4--4---4--4--|
--8--8---8--8--|--8--8---8--8-|--5--5--5--5--|--5--5---5--5--|
--8--8---8--8--|--8--8---8--8-|--6--6--6--6--|--6--6---6--6--|
--6--6---6--6--|--6--6---6--6-|--6--6--6--6--|--6--6---6--6--|
---------------|--------------|--------------|---------------|
Sabes te quiero confesar......

     D#             D#             G#             G#
--6--6---6--6--|--6--6---6--6-|--4--4--4--4--|--4--4---4--4--| 
--8--8---8--8--|--8--8---8--8-|--4--4--4--4--|--4--4---4--4--|
--8--8---8--8--|--8--8---8--8-|--5--5--5--5--|--5--5---5--5--|
--8--8---8--8--|--8--8---8--8-|--6--6--6--6--|--6--6---6--6--|
--6--6---6--6--|--6--6---6--6-|--6--6--6--6--|--6--6---6--6--|
---------------|--------------|--------------|---------------|
No dejo de pensar....

       Fm             Cm              A#           A#
--1--1---1--1--|--3--3---3--3-|--1--1--1--1--|--1-----1----| 
--1--1---1--1--|--4--4---4--4-|--3--3--3--3--|--3-----3----|
--1--1---1--1--|--5--5---5--5-|--3--3--3--3--|--3-----3----|
--3--3---3--3--|--5--5---5--5-|--3--3--3--3--|--3-----3----|
--3--3---3--3--|--3--3---3--3-|--1--1--1--1--|--1-----1----|
---------------|--------------|--------------|-------------|
por quedarme cerca.....
Aviso: Este fichero es trabajo propio de su transcriptor y representa su interpretación personal de la canción. El material contenido en esta página es para exclusivo uso privado, por lo que se prohibe su reproducción o retransmisión, así como su uso para fines comerciales.

Califica esta canción


Comentarios en Facebook