Enviado por: Anonimo
Agrandar Letra
Reducir Letra
Imprimir


Otras Versiones de Fue En Un Cafe:









Los Apson, Fue En Un Cafe

Estuve revisando la tablatura del solo y del inicio
y la verdad es que le hacen mucho al cuento
Ahi les va la version original de esta excelente cancion de los apson

Introduccion:
D-------------------
A----0-3-----0-3----
E-1------0-1-----0-1   Esto se repite

Y el solo de la cancion va asi:

E--------------------------------------------
B-----------1--------------------------------
G---0-1-1/2---2-0----------------------------
D-3---------------3---0-2-3-3-3-3-2-0-0--2-2-
A--------------------------------------------
E--------------------------------------------

E--------------------------------------------
B--------------------------------------------
G-3h2h0-0---0-2-2/3-2--0-2/3-2--0-2/3-2-0----
D------------------------------------------3-
A--------------------------------------------
E--------------------------------------------

E---------------1---------
B---------1-1/3---3-1-----
G---------------------1-2-
D-2-0---------------------
A-----3-------------------
E-------------------------

Bueno, si tienen alguna duda del solo o de la introduccion
escribanme y se las aclaro

Saludos a Guadalajara y a toda la banda de la prepa 2, al Michel
al Lemus,a Pablo y al Pollo.
Poco es tanto cuando poco necesitas

Fuente original: LaCuerda
Colaborador original: Gabriel Giovanni Larios Hernandez [[email protected]]
Aviso: Este fichero es trabajo propio de su transcriptor y representa su interpretación personal de la canción. El material contenido en esta página es para exclusivo uso privado, por lo que se prohibe su reproducción o retransmisión, así como su uso para fines comerciales.

Califica esta canción


Comentarios en Facebook