Enviado por: alejandrocoria
Agrandar Letra
Reducir Letra
Imprimir


Otras Versiones de Vermilion Pt.2:

Slipknot, Vermilion Pt.2

 

 E A D G B E
 
   Riff Base* ( Tocar o Riff de Acordes, Riff de Solo e Riff de Baixo juntos )  
 
(Acordes em "5")		      
|--------------------------------------------------------------------------| 
|--------------------------------------------------------------------------| 
|----------------9-9-9-8-8-8-8-9-8-9---------------------------------------| 
|--6-6-6-6/8-8-8-9-9-9-8-8-8-8-9-8-9-8-8/9-9-9-...9-9-9-8-8-8-8-9-8-9-8-7--|  
|--6-6-6-6/8-8-8-7-7-7-6-6-6-6-7-6-7-8-8/9-9-9-...9-9-9-8-8-8-8-9-8-9-8-7--| 
|--4-4-4-4/6-6-6---------------------6-6/7-7-7-...7-7-7/6-6-6-6-7-6-7-6-5--| 
                                        '--------------' 
                                               19X 
(Baixo)  
|-------------------------------------------------------| 
|-------------------------------------------------------| 
|----------------6/7-7-7-6-7-6-7------------------------| 
|--4-4-4-4/6-6-6-----------------6/7-7-7-7-7-7/9-7-6-7--| 
     
(Solo) 
|----------------------------------------------------| 
|----------------------------------------------------| 
|------8h9-8-9-8-------------------------------------| 
|--6-8-----------8-9--9-9-9--9-9-9--9-9-9/11-9-8-9---| 
|----------------------------------------------------| 
|----------------------------------------------------| 
  
ntroo: Riff Base* 2X  
 
Verso: Riff Base 
 She seemed dressed in all of me Strechted across my shame 
 All the torment and the pain Leaked through and covered me 
 I do anything to have her to myself just to have her for myself 
 Now I don't know what to do 
		      E  	    E	F# Eb 
 I don't know what to do  When she make me sad 
 
 Riff Base* 
  
 She is everthing to me The unrequited dream 
 A song that no one sings The Unattainable 
 She's a myth that I have to believe in All I need to make it real is one more Reason 
 I don't know what to do 
		      E  	    E	F# Eb 
 I don't know what to do  When she make me sad 
 

'  G	    F# 	       Bm	 D                                                   
'|------------------------2----------------5---|                                      ' 
'|---3----------------2-----3--------7---7-----|                                      ' 
'|-----4---4----3---3---4-----4---7----7-------|                                      ' 
'|-5-----5---4----4-----4---------7------------|                                      ' 
'|-5---------4----------2---------5------------|                                      ' 
'|-3---------2---------------------------------|                                      ' 
'-------------------------------------------------------------------------------------' 

               
               
        G              F#        Bm         D 
 But I won't let this build up inside of me      
       G              F#        Bm          D 
     I won't let this build up inside of me      
       G              F#        Bm          D 
     I won't let this build up inside of me 
       G              F#        Bm 
     I won't let this build up inside of me 
 
 
 
  Bm    C#m D G    Bbm  C#m  Bm Bbm Bm   F#* <-(8°) 
|----------------------------------------2---| 
|--0-----2--3------------2----0------0-------| 
|-------------0-----3-----------3------------| 
|--------------------------------------------| 
|--------------------------------------------| 
|--------------------------------------------| 
 
 
                Bm            A9        G 
 I catch in my throat, Choke, Torn into pieces 
  
   Bm            F#m           A9        
 I won't - No, I don't want to be this 
 
 
            
 
        G              F#        Bm         D 
 But I won't let this build up inside of me      
       G              F#        Bm          D 
     I won't let this build up inside of me      
       G              F#        Bm          D 
     I won't let this build up inside of me   
       G              F# ->(Inicie o Riff Base* na ultima batida em F#) 
     I won't let this build up inside of me   
 
 
Riff Base* 
 
 Won't let this build up inside of me 2x 
  
Riff Base* 
 
| She isn't real (won't let this build up inside of me)	      | 
| I can't make her real (won't let this build up inside of me)|  
|                                                             | 
| She isn't real (won't let this build up inside of me)	      | 
| I can't make her real (won't let this build up inside of me)|  
 
 
Riff Final 
|--------11h12--11---| 
|--9--11-------------| 
|--------------------| 
|--------------------| 
|--------------------| 
|--------------------| 

tantas veces le dedique este tema a mi bebitaa jakjaaa
muy bueno cualquier consulta en [email protected]
Aviso: Este fichero es trabajo propio de su transcriptor y representa su interpretación personal de la canción. El material contenido en esta página es para exclusivo uso privado, por lo que se prohibe su reproducción o retransmisión, así como su uso para fines comerciales.

Califica esta canción


Comentarios en Facebook