Acordes y tablaturas para guitarra

Acordes y Tablaturas
Usuario: Password:

Buscar:
Acordes y Tablaturas >> Letra G >> Acordes de Guns N´ Roses >> paradise city
Tablatura de paradise city, Guns N´ Roses

Paradise city

Guns N´ Roses






Paradise City
Guns N' Roses
Appetite For Destruction

h	    = hammer on
p 	    = pull off
*	    = dead note
s 	    = slide
s\	    = slide down the neck
s/	    = slide up the neck
V 	    = vibrato
fb 	    = full bend
fbr	    = full bend then realease
fr 	    = full release 
qb 	    = quarter bend
qbr	    = quarter bend then release
hb     	    = half bend
hbr	    = half bend then release

\________/  = triplet which adds to half a bar 
   1/2t      

\________/  = triplet which adds to quarter a bar - counterd 1 + a 2 + a etc
   1/4t

\________/ =  triplet which adds to sixth a bar
   1/6

\________/  = triplet which adds to 1/8th of a bar   
   1/8t


Tune down 1/2 step

Speed = 104

INTRODUCTION
Rhy. Fig. 1 
Repeat 4 times

  G                                 C
|-3-------3-----3---------3-------|---------3-----3---------3-------|
|-0---------0-------0-------0---0-|-1---------1-------1-------1---0-|
|-0-----------0-------0-------0---|-0-----------0-------0-------0---|
|-0-------------------------------|-0h2---2-------------------------|
|-2-------------------------------|-----3---------------------------|
|-3-------------------------------|---------------------------------|
  1 e + a 2 e + a 3 e + a 4 e + a   1 e + a 2 e + a 3 e + a 4 e + a

  Fadd9           C                 G
|---------3---------------3-------|-------3-------3-----------------|
|-1-----1---1---1-1-----1---1---1-|-0-------0---------0---0---0-----|
|-0h2---------2---0-----------0---|-0---------0--------0h2--0-----0-|
|-0h3-------------0h2-------------|-0--------------------------0h2--|
|---------------------3-----------|-2-------------------------------|
|---------------------------------|-3-------------------------------|
  1 e + a 2 e + a 3 e + a 4 e + a   1 e + a 2 e + a 3 e + a 4 e + a


Rhy. Fig. 2

Riff A.
Repeat 4 times.
3rd and 4th times with Riff B.

  G5              C5              F5      C5      G5
|---------------|---------------|---------------|---------------|
|---------------|---------------|---------------|---------------|
|---------------|-3-------------|---------3-----|---------------|
|-3-------------|-5-------------|-1-------5-----|-3-------------|
|-5-------------|-5-------------|-3-------5-----|-5-------------|
|-5-------------|---------------|-3-------------|-5-------------|
  1   2   3   4   1   2   3   4   1   2   3   4   1   2   3   4

Riff B.

|------------------------------------------------|------------------------------------------------|
|-------------------------15---------------------|-------------------------15---------------------|
|:------12-12V---------------14fb-----14fbr------|-------12-12----------------14fb-----14fbr-----:|
|-12h14-------------14-12-------------------12---|-12h14-------------14-12-------------------12---|
|----------------------------------------------14|----------------------------------------------14|
|------------------------------------------------|------------------------------------------------|
  1  e  +  a  2  e  +  a  3  e  +  a  4  e  +  a   1  e  +  a  2  e  +  a  3  e  +  a  4  e  +  a  

 _________________________________________________________________________________________________
 |1.                                                                                             | 
|------------------------------------------------|------------------------------------------------|
|-13fb--------13fb--------13----------10fbr-8----|-10fb-V-----------------------------------------|
|----------------------------------------------9-|------------------------------------------------|
|------------------------------------------------|------------------------------------------------|
|------------------------------------------------|------------------------------------------------|
|------------------------------------------------|------------------------------------------------|
  1  e  +  a  2  e  +  a  3  e  +  a  4  e  +  a   1  e  +  a  2  e  +  a  3  e  +  a  4  e  +  a  

 _________________________________________________________________________________________________
 |2.            /hold bend\                                                                      | 
|----------------------15------------------------|------------------------------------------------|
|-13fb--------13fb--------13----------------12h13|-12---------------------------------------------|
|------------------------------------------------|------------------------------------------------|
|------------------------------------------------|------------------------------------------------|
|------------------------------------------------|------------------------------------------------|
|------------------------------------------------|------------------------------------------------|
  1  e  +  a  2  e  +  a  3  e  +  a  4  e  +  a   1  e  +  a  2  e  +  a  3  e  +  a  4  e  +  a

Riff C (Two Guitars)

|---------------------------------|---------------------------------|
|---------------------------------|---------------------------------|
|---------------------------------|---------------------------------|
|---------------------------3-----|-------------------------5-3-----|
|-5---3-4-5---3-4-5-3-5-3-5-1-----|-5---3-4-5---3-4-5-3-5-3-3-1-----|
|-3---1-2-3---1-2-3-1-3-1-3-------|-3---1-2-3---1-2-3-1-3-1---------|
  1 e + a 2 e + a 3 e + a 4 e + a   1 e + a 2 e + a 3 e + a 4 e + a 

|---------------------------------|---------------------------------|
|---------------------------------|---------------------------------|
|---------------------------------|---------------------------------|
|---------------------------3-----|-------------------------5-3-----|
|-5---3-4-5---3-4-5-3-5-3-5-1-----|-5---3-4-5---3-4-5---3---3-1-----|
|-3---1-2-3---1-2-3-1-3-1-3-------|-3---1-2-3---1-2-3---2-----------|
  1 e + a 2 e + a 3 e + a 4 e + a   1 e + a 2 e + a 3 e + a 4 e + a 



The Verses.

The verse is played 4 times during the song. 
Guitar 1 plays the same Riff during the four verses.
Guitar 2 plays Riff D for the 1st and 2nd but then plays Riff E for the 3rd and 4th verses.

   
    Just a urchin livin' under the street. I'm a hard case that's tough to beat. I'm your

         |---------------------------------|---------------------------------|
         |---------------------------3-----|-------------------------5-3-----|
Guitar 1 |---------------------------3-----|-------------------------5-3-----|
         |---------------------------3-----|-------------------------5-3-----|
         |---------------------------1-----|-------------------------3-1-----|
         |-3---1-2-3-3-1-2-3-1-3-1-3-------|-3---1-2-3-3-1-2-3-1-3-1---------|
           1 e + a 2 e + a 3 e + a 4 e + a   1 e + a 2 e + a 3 e + a 4 e + a  

	 |---------------------------------|---------------------------------|
         |---------------------------------|---------------------------------|
Guitar 2 |---------------------------3qb---|-------------------------5-3qb---|
Riff D   |-5---3-4-5-5-3-5-----5-5-5-------|-5---3-4-5-5-3-5-----5-5---------|
         |-------------------5-------------|-------------------5-------------|
         |---------------------------------|---------------------------------|
           1 e + a 2 e + a 3 e + a 4 e + a   1 e + a 2 e + a 3 e + a 4 e + a  

	 |---------------------------------|---------------------------------|
         |---------------------------3-----|---------------------------------|
Guitar 2 |-4---2-3-4---2-3-4-2-4-2-4-------|-4---2-3-4---2-3-4-2-4-2-3fbr----|
Riff E   |---------------------------------|---------------------------------|
         |---------------------------------|---------------------------------|
         |---------------------------------|---------------------------------|
           1 e + a 2 e + a 3 e + a 4 e + a   1 e + a 2 e + a 3 e + a 4 e + a  



         charity case so buy me something to eat. I'll pay you at another

         |-----------------------------------|   |-----------------|
         |---------------------------3-------|   |-----------3-----|
Guitar 1 |---------------------------3-------| 2 |-----------3-----|
         |---------------------------3-------| 4 |-----------3-----|
         |---------------------------1-------|   |-----------1-----|
         |-3---1-2-3-3-1-2-3-1-3-1-3---------|   |-3V--1-2-3-------|
           1 e + a 2 e + a 3 e + a 4 e + a         1 e + a 2 e + a  

         |-----------------------------------|   |-----------------|
         |-----------------------------------|   |-----------------|
Guitar 2 |-----------------------------------| 2 |-----------------|
Riff D   |-5---3-4-5-5-3-5-----5-5-5-3qb-----| 4 |-5---3---5---3---|
         |-------------------5---------------|   |-----------------|
         |-----------------------------------|   |-----------------|
           1 e + a 2 e + a 3 e + a 4 e + a         1 e + a 2 e + a  

         |-----------------------------------|   |-----------------|
         |---------------------------3-------|   |-----------------|
Guitar 2 |-4---2-3-4---2-3-4-2-4-2-4---------| 2 |-4---2-3-4---2---|
Riff E   |-----------------------------------| 4 |-----------------|
         |-----------------------------------|   |-----------------|
         |-----------------------------------|   |-----------------|
           1 e + a 2 e + a 3 e + a 4 e + a         1 e + a 2 e + a  


         time                              Take  it  to  the  end  of  the  line.

         |---------------------------------|---------------------------------|
         |-5-------------------------------|---------------------------------|
Guitar 1 |-5-------------------------------|---------------------------------|
         |-5-------------------------------|---------------------------------|
         |-3-------------------------------|-3hbr--1-3-1---------------------|
         |---------------------------------|-------------1-3V--------3s\-----|
           1 e + a 2 e + a 3 e + a 4 e + a   1 e + a 2 e + a 3 e + a 4 e + a 

         |---------------------------------|---------------------------------|
         |---------------------------------|---------------------------------|
Guitar 2 |-5fbr--------fbr-----------------|-5hbr--3-5hbr3-------------------|
Riff D   |---------------------------------|---------------5---------5s\-----|
         |---------------------------------|---------------------------------|
         |---------------------------------|---------------------------------|
           1 e + a 2 e + a 3 e + a 4 e + a   1 e + a 2 e + a 3 e + a 4 e + a 

         |-------------------------0-------|---------------------------------|
         |-----------------1---------------|-5fbr--3-5-3---------------------|
Guitar 2 |---------0-----------------------|-------------3-------------------|
Riff E   |-2-------------------------------|---------------4-4s\-------------|
         |---------------------------------|---------------------------------|
         |---------------------------------|---------------------------------|
           1 e + a 2 e + a 3 e + a 4 e + a   1 e + a 2 e + a 3 e + a 4 e + a 


THE CHORUS
With Rhy. Fig 2 Riff A(2 times)


G5                                            C5                  
Take me down to the paradise city, where the grass is green and the girls are pretty.

F5            C5            G5
Oh wont you please take me home

G5                                            C5
Take me down to the paradise city, where the grass is green and the girls are pretty.

F5      C5      G5
Take    me      home

For the chorus just before solo - lead guitar plays this at end.

 Oh,  won't  you  please  take  me home______

|---------------------------------|---------------------------------|
|---------------------------------|---------------------------------|
|---------------------------------|---------------------------------|
|---------------------------------|---------------------------------|
|---------------------------------|---------------------------------|
|---------------------------------|-3-1-----------------sl/(13)-sl\-|
  1 e + a 2 e + a 3 e + a 4 e + a   1 e + a 2 e + a 3 e + a 4 e + a   

GUITAR SOLO
Played with Riff C from Intro
|------------------------------------------------|------------------------------------------------|
|------------------------------------------------|------------------------------------------------|
|-------------------------------------3----------|-5fb---------3-----------------------5fbr--3----|
|-3--3fb------------------5V-------------5-------|----------------------3-------------------------|
|-------------------------------------------3----|-------------------------5----------------------|
|----------------------------------------------5-|------------------------------------------------|
  1  e  +  a  2  e  +  a  3  e  +  a  4  e  +  a   1  e  +  a  2  e  +  a  3  e  +  a  4  e  +  a  


|-------------------1--------------6----------|-------------------5----------------------------|
|--(slow bend)---3----------------------------|-------------------sl/8-----------------------8-|
|-5fb---------------sl/6-----------------5fbr-|-------------3h 4-------------------------------|
|---------------------------------------------|------------------------------------------------|
|---------------------------------------------|------------------------------------------------|
|---------------------------------------------|------------------------------------------------|
  1  e  +  a  2  +  a  3  e  +  a  4  e  +  a   1  e  +  a  2  e  +  a  3  e  +  a  4  e  +  a  

Played with Riff F shown below.
|-------5--8-------------------------------------|------------------------------------------------|
|-8fb---------8fr---5--8--------5--8-------------|------------------------------------------------|
|-------------------------7fb---------7fr---5----|-7--5-------------------------------------------|
|----------------------------------------------7-|-------7--5-------------------------------------|
|------------------------------------------------|-------------7--6--5--3--5fbr--3----------------|
|------------------------------------------------|----------------------------------5-------------|
  1  e  +  a  2  e  +  a  3  e  +  a  4  e  +  a   1  e  +  a  2  e  +  a  3  e  +  a  4  e  +  a  

|----------------3-----------------------3-------|    |------------------------|
|-5hb---------------3-----5hb---------------3----|    |-5hb -----------3-------|
|-5hb------------------3--5hb------------------3-|  2 |-5hb---------------3----|
|-(slow bend)-------------(slow bend)------------|  4 |-(slow bend)----------3-| End Solo
|------------------------------------------------|    |------------------------|
|------------------------------------------------|    |------------------------|
  1  e  +  a  2  e  +  a  3  e  +  a  4  e  +  a        1  e  +  a  2  e  +  a  

Riff F.

|---------------------------------|---------------------------------|
|---------------------------------|---------------------------------|
|---------------------------------|---------------------------------|
|---------------------------5-----|-------------------------7-5-----|
|-7---5-6-7---5-6-7-5-7-5-7-3-----|-7---5-6-7---5-6-7-5-7-5-5-3-----|
|-5---3-4-5---3-4-5-3-5-3-5-------|-5---3-4-5---3-4-5-3-5-3---------|
  1 e + a 2 e + a 3 e + a 4 e + a   1 e + a 2 e + a 3 e + a 4 e + a



THIS BIT IS PLAYED AFTER THE SOLO.

                                              So    far                                         a-   

|------------------------------------------------||----10----------10----------10----------10------|
|-5-----------5----------------------------------||------------------------------------------------|
|-5-----------------5--------------------------10||h11----12-10h11-------10h11----12-10h11-------8h|
|------------------------------------------------||:-----------------------------------------------|
|------------------------------------------------||------------------------------------------------|
|------------------------------------------------||------------------------------------------------|
  1  e  +  a  2  e  +  a  3  e  +  a  4  e  +  a    1  e  +  a  2  e  +  a  3  e  +  a  4  e  +  a  

  way.                                        So    far____________                            a-

|----8-----------10----------10----------10------|----10----------10----------10----------10------|
|------------------------------------------------|------------------------------------------------|
|h9-----10-8h 9--------8h 9-----10-8h 9--------10|h11----12-10h11-------10h11----12-10h11-------8h|
|------------------------------------------------|------------------------------------------------|
|------------------------------------------------|------------------------------------------------|
|------------------------------------------------|------------------------------------------------|
  1  e  +  a  2  e  +  a  3  e  +  a  4  e  +  a   1  e  +  a  2  e  +  a  3  e  +  a  4  e  +  a  


  way.                                       So      way.
 ________________________________________________ ________________________________________________
 |1.                                            | |2.                                            |
|----8-----------10----------10----------10------||----8-----------8-----------6--------(6)s\------|
|------------------------------------------------||----------------------------6--------(6)s\------|
|h9-----10-8h 9--------8h 9-----10-8h 9--------10||h9-----10-8h 9-----10-6h 7----------------------|
|-----------------------------------------------:||------------------------------------------------|
|------------------------------------------------||------------------------------------------------|
|------------------------------------------------||------------------------------------------------|
  1  e  +  a  2  e  +  a  3  e  +  a  4  e  +  a    1  e  +  a  2  e  +  a  3  e  +  a  4  e  +  a  



CODA II

Played with Rhy. Fig 2 Riff A

  Oh  won't  you  please  take  me  home.____________
|---------------------------------|---------------------------------|
|---------------------------------|---------------------------------|
|---------------------------------|---------------------------------|
|---------------------------------|---------------------------------|
|---------------------------------|---------------------------------|
|---------------------------------|---------------------------------|
  1 e + a 2 e + a 3 e + a 4 e + a   1 e + a 2 e + a 3 e + a 4 e + a

  Take  me home  to the paradise  city where  the  grass is green and the girls are pretty
||----------------------------15------------------|----------------------------------15------------|
||-------------------------15fb-------------------|-------13-13V---------------15fb-----15fbr-13---|
||-------12-12V------------------------14fbr-12---|-12h14-------------14-12----------------------13|
||:12h14-------------14-12----------------------14|------------------------------------------------|
||------------------------------------------------|------------------------------------------------|
||------------------------------------------------|------------------------------------------------|
   1  e  +  a  2  e  +  a  3  e  +  a  4  e  +  a   1  e  +  a  2  e  +  a  3  e  +  a  4  e  +  a  


 
  Take                    me                       home,                         yeah, yeah.
 _________________________________________________________________________________________________
 |1.                                                                                             |
|------------------------------------------------|------------------------------------------------||
|------------------------------------------------|-------15-------15-------15-------15------------||
|------------------------------------------------|-14fb-----14fb--------14fb--14fb-----14fbrp12--:||
|------------------------------------------------|----------------------------------------------14||
|------------------------------------------------|------------------------------------------------||
|------------------------------------------------|------------------------------------------------||
  1  e  +  a  2  e  +  a  3  e  +  a  4  e  +  a   1  e  +  a  2  e  +  a  3  e  +  a  4  e  +  a  

 
  Oh,    won't   you    please     take    me     home,
 _________________________________________________________________________________________________
 |2.                                                                                             |
|----13V------------------13---------------------|------------------------------------------------|
|-------------------------13---------------------|-12hr--(slow release)---------------------------|
|h14----------------------12---------------------|------------------------------------------------|
|------------------------------------------------|------------------------------------------------|
|------------------------------------------------|------------------------------------------------|
|------------------------------------------------|------------------------------------------------|
  1  e  +  a  2  e  +  a  3  e  +  a  4  e  +  a   1  e  +  a  2  e  +  a  3  e  +  a  4  e  +  a  

Now here's the fast part.

DOUBLE TIME    Speed = 208

Second guitar plays chords listed above tab.

  G5				      C5
|-----------------|-----------------|-----------------|-----------------|
|-----------------|-----------------|-----------------|-----------------|
|:----------------|-----------3qb---|-5v--3-4-5v--3-4-|-5-3-5-3-5-3qb---|
|-5v--3-4-5v--3-4-|-5-3-5-3-5-------|-----------------|-----------------|
|-----------------|-----------------|-----------------|-----------------|
|-----------------|-----------------|-----------------|-----------------|
  1 + 2 + 3 + 4 +   1 + 2 + 3 + 4 +   1 + 2 + 3 + 4 +   1 + 2 + 3 + 4 +   

  F5		    C5                G5
|-----------------|-----------------|-----------------|-----------------|
|-----------------|-----------------|-----------------|-----------------|
|-------------s/5-|-----3-4-5-3-5-3qb-------------3---|-5-3-----3hb----:|
|-3v--1-2-3-0-3---|-----------------|-----5-3-5v----5-|-----5-3-----5-3-|
|-----------------|-----------------|-----------------|-----------------|
|-----------------|-----------------|-----------------|-----------------|
  1 + 2 + 3 + 4 +   1 + 2 + 3 + 4 +   1 + 2 + 3 + 4 +   1 + 2 + 3 + 4 + 

  G5				      C5                                  F5	
|-----------------|-----------------|-----------------|-----------------|-----------------|
|-----------------|-----------------|-5hbr--3-5hbr--3-|-5hbr--3-5v------|-6-----------*-5-|
|---------3-------|---------3-------|-5hbr--3-5hbr--3-|-5hbr--3-5v------|-5-----------*-5-|
|-5v--------5---5v|-----3-----5v----|-----------------|-----------------|-----------------|
|-----------------|-----------------|-----------------|-----------------|-----------------|
|-----------------|-----------------|-----------------|-----------------|-----------------|
  1 + 2 + 3 + 4 +   1 + 2 + 3 + 4 +   1 + 2 + 3 + 4 +   1 + 2 + 3 + 4 +   1 + 2 + 3 + 4 + 

  C5		    G5					G5
|-----------------|-----------------|-----------------|--------------------------|
|---------------3-|-3qb---------3---|---------3s\-----|--------------------------|
|---------------3-|-3qb---------3---|-3-2-----3s\-----|-----12----15fb-----------|
|-----------------|-----5p3-5v----5-|-----5-3---------|s/14----------------------|
|-----------------|-----------------|-----------------|--------------------------|
|-----------------|-----------------|-----------------|--------------------------|
  1 + 2 + 3 + 4 +   1 + 2 + 3 + 4 +   1 + 2 + 3 + 4 +    1  +  2  +  3  +  4  + 

Timing gets tricky here.
     				     C5
|---------------------------------|------------------------|
|--15fb-15fb-15fb-15fb------------|--15fb-15-14-13----13-15|
|--\____________/-----------------|--\________/----15------|
|-------1/2t----------------------|----1/2t----------------|
|---------------------------------|------------------------|
|---------------------------------|------------------------|
   1              3  +  4  +         1          3  +  4  + 

|---------------------------------------------------------|
|--13h15p13s\-11h13p11-(11)h13p11s\10----11p10----10h11---|
|--\______/---\______/--\_______/--------------12---------|
|----1/4t-------1/8t------1/8t----------------------------|
|---------------------------------------------------------|
|---------------------------------------------------------|
   1  +  a    2                    3  e  +  a  4  e  +  a

  F5					 C5
|---------------10-15---------15-------|----15----15----15----15----15-------|
|-10----10s/13fb------18fb-------18p15-|-18fb--18----18fb--18----18fb--18p15-|
|----12-----\____/------------\______/-|-\______/-\______/-\______/-\______/-|
|-\______/---1/4t---------------1/4t---|---1/4t-----1/4t-----1/4t-----1/4t---|
|---1/4t-------------------------------|-------------------------------------|
|--------------------------------------|-------------------------------------|
  1  +  a   2   +  a  3   +   4  +  a    1  +  a  2  +  a  3  +  a  4  +  a

  G5
|-----15----15----15----15-------|-18fb---(18)sl\--|--3--------3--------3--------3--------|
|--------18----18fb--------18p15-|-----------------|-----6p-3-----6p-3-----6p-3-----6p-3--|
|--17fb-----------------\______/-|-----------------|--\_____/--\_____/--\_____/--\_____/--|
|--\______/---------------1/4t---|-----------------|---1/4t-----1/4t-----1/4t-----1/4t----|
|----1/4t------------------------|-----------------|--------------------------------------|
|--------------------------------|-----------------|--------------------------------------|
   1  +  a  2  +  3  +  4  +  a    1 + 2 + 3 + 4 +    1  +  a  2  +  a  3  +  a  4  +  a

		    C5				        F5
|-----------------|-----------------|-----------------|-------6----5h6p5----------------------|
|-----------------|-----------------|-----------------|-6s/8-------\___/--8p6-8---5h6h8-5h6h8-|
|-------%---------|-------%---------|-------%---------|------------1/8t-----------------------|
|-----------------|-----------------|-----------------|---------------------------------------|
|-----------------|-----------------|-----------------|---------------------------------------|
|-----------------|-----------------|-----------------|---------------------------------------|
  1 + 2 + 3 + 4 +   1 + 2 + 3 + 4 +   1 + 2 + 3 + 4 +   1  e  +  a  2     + a 3 e + a 4 e + a

  C5				    G5				  This bar with wah
|---------------------------------|-----------------------------|-------------------------|
|-6p5---------3-------3-----------|-----------------------------|-1/4t--1/4t--------------|
|-----7p5-5fb-----5fb-----5fb-5---|-3h5p3-----3-----------------|-/   \ /   \-------------|
|---------------------------------|-\___/-3h5---5v---------p3---|-5p3-------3-------------|
|---------------------------------|-1/4t--\___/-----------------|-----5-3h5-s\3--1--------|
|---------------------------------|--------1/4t-----------------|-------------------3-----|
  1 e + a 2 e + a 3 e + a 4 e + a   1 + a 2 + a 3 e + a 4 e + a   1 + a 2 + a 3  a  4  a  

						      C5
|-------------------------|-------------------------|-------------------------|
|-------------------------|-------------------------|-------------------------|
|-------------------------|-------------------------|-------------------------|
|-------------------------|-------------------------|-------3-----5--3--------|
|-------------------1-----|-3hbr-----1--3--1--------|-3s/5-----5--------5--3--|
|-1hb---1--3v----------3--|-------------------3--*--|-------------------------|
  1  +  2  +  3  +  4  +    1  +  2  +  3  +  4  +    1  +  2  +  3  +  4  +  

			  F5		    C5		      G5
|-----------------------|-----------------|-----------------|-------3---3------|
|-3-----------------3---|-3---------------|-3---------------|-----3-----3-3----|
|-3-----5p3h5v----5---5-|-3-----------3---|-3-----------3---|-5fb-----5fb---5fb|
|-----------------------|-----5-5v--5---5-|-------5v--5---5-|------------------|
|-----------------------|-----------------|-----------------|------------------|
|-----------------------|-----------------|-----------------|------------------|
  1  +  2 e + a 3 + 4 +   1 + 2 + 3 + 4 +   1 + 2 + 3 + 4 +   1 + 2 + 3 + 4 +
	
			slow bend     slow bend		 C5
|---3-------------|---3-----------3-|------------------|-----------3------|
|-3---5hbr-hb-----|-3---5hb-----3---|-5hb-----------5hr|(5)hb--------6fb--|
|-----5hbr-hb-----|-----5hb---------|-5hb-----------5hr|(5)hb-------------|
|-----------------|-----------------|------------------|------------------|
|-----------------|-----------------|------------------|------------------|
|-----------------|-----------------|------------------|------------------|
  1 + 2 + 3 + 4 +   1 + 2 + 3 + 4 +   1 + 2 + 3 + 4 +    1 + 2 + 3 + 4 +

				 F5			  C5
|-3-----------3-6p3-----8fbr-p-|-6-----8p6-------10fb10-|-9--8-----8--9--10-------|
|----6fb----6-------6----------|----8-------8p6---------|-------10fb--------10hbr-|
|------------------------------|------------------------|-------------------------|
|------------------------------|------------------------|-------------------------|
|------------------------------|------------------------|-------------------------|
|------------------------------|------------------------|-------------------------|
  1  +  2 e + a 3 e + a 4   +    1  +  2 +  3 +  4   +    1  +  2  +  3  +  4  +

  G5
|-----------------|---------------10-|-----------------|------------------|
|p8---10--8---10--|-8---10--8-10fb---|-10--8v--10--8v--|-10--8v--10--8-10-|
|---9---9-------9-|-------9----------|---9-------9-----|---9-------9------|
|-----------------|------------------|-----------------|------------------|
|-----------------|------------------|-----------------|------------------|
|-----------------|------------------|-----------------|------------------|
  1 + 2 + 3 + 4 +   1 + 2 + 3 + 4 +    1 + 2 + 3 + 4 +   1 + 2 + 3 + 4 + 

  C5
|------------------------------------|---------------------------------------|
|-8h--10--11--10h11p10p8-----10------|-8-------10h11p10----10h11h13-10h11h13-|
|------------------------10------10--|---s/12-----------12-\______/-\______/-|
|------------------------------------|-----------------------1/4t-----1/4t---|
|------------------------------------|---------------------------------------|
|------------------------------------|---------------------------------------|
  1 e + a 2 e +  a  3  e + a 4 e + a   1 e + a 2  e  +  a  3  +  a  4  +  a
 
  F5					     C5
|-10h12----10h12h13-15p12h13-s/17----13h15-|-15h17--s/18----15h17-15----15-------15-|
|-------13-\______/-\______/---------------|-------18----------------18----18fb-----|
|-\______/---1/4t-----1/4t-----------------|-\______/-------------\______/-\______/-|
|---1/4t-----------------------------------|---1/4t-----------------1/4t-----1/4t---|
|------------------------------------------|----------------------------------------|
|------------------------------------------|----------------------------------------|
  1  +  a  2  +  a  3  +  a    4  e  +  a    1  +  a  2  e  +  a  3  +  a  4  +  a
  
  G5
|-------------------------------------------------|-*-18qb-------------------|
|-18p15-18p15----15-18p15----15----15-------------|---17qb---------17vs\14---|
|-------------18----------18----18----17fbrp15----|--------------------------|
|----------------------------------------------17-|--------------------------|
|-------------------------------------------------|--------------------------|
|-------------------------------------------------|--------------------------|
  1  e  +  a  2  e  +  a  3  e  +  a  4  e  +  a    1  e + a 2  +  3  + 4  +  

|-------------------12-13h15p13p12----13p12-|-------12-----------------------------------------|
|----------12h13h15----------------15-------|-15-13----15p13-12-15-13p12----14p13p12----15p14p-|
|-12h14h15-\______/-------------------------|----------------------------15----------14--------|
|-\______/---1/4t---------------------------|--------------------------------------------------|
|---1/4t------------------------------------|--------------------------------------------------|
|-------------------------------------------|--------------------------------------------------|
  1  +  a  2  +  a  3  e  +  a  4  e  +  a    1  e  +  a  2  e  +  a  3  e  +  a  4  e  +  a

  C5
|------------------------------------------------|-------------------------------------------------|
|p13p12-------12p10-------10---------------------|-------------------------------------------------|
|-------14p12-------12p10----12p10s\9--12p10p9---|-10p9--------9-----------------------------------|
|----------------------------------------------12|-------12-10----12p10-9--12-10hbr----10fbr----10-|
|------------------------------------------------|----------------------------------13-------13----|
|------------------------------------------------|-------------------------------------------------|
  1  e  +  a  2  e  +  a  3  e  +   a  4  e  + a   1  e  +  a  2  e  +  a  3  e  +  a  4  e  +  a

  F5					  C5
|---------------------------------------|-------------------------------------|
|---------------------------------------|-------------------------------------|
|---------------------------------------|---1/4t------------15h16h17-15h16h17-|
|-10------------10----------------10--0-|-/      \-15h16h17-\______/-\______/-|
|---------------------------------------|-15h16h17-\______/---1/4t-----1/4t---|
|--------10--10-------------10 10-------|------------1/4t---------------------|
  1   +   2  e  +  a  3  e  +  a  4   +   1  +  a  2  +  a  3  +  a  4  +  a

  G5
|-------------------------------------------------------|----------15---------------|
|----------------------------15h16h17----------15h16h17-|-15h16h18----18fb----------|
|-15h16h17----------15h16h17-\______/-15h16h17-\______/-|-\______/------------------|
|-\______/-15h16h17-\______/---1/6t---\______/---1/6t---|---1/4t--------------------|
|---1/6t---\______/---1/6t--------------1/6t------------|----------------------15s\-|
|------------1/6t---------------------------------------|---------------------------|
  1                          2				  1  +  a  2  +  3  +  4  +

	    _______________________________	            _________
  Heavy P.M.				   |  C5 Lighter P.M.        |
|---------------------------------|---------|-------------------------|---------|
|---------------------------------|---------|-------------------------|---------|
|---------------------------------|----%----|-------------------------|----%----|
|---------------------------------|---------|-3-4-5-3-4-5-3-4-5-3-4-5-|---------|
|---------------------------------|---------|-\___/-\___/-\___/-\___/-|---------|
|-3---1-2-3---1-2-3---1-2-3---1-2-|---------|-1/4t---1/4t--1/4t--1/4t-|---------|
  1 e + a 2 e + a 3 e + a 4 e + a   1 2 3 4   1 + a 2 + a 3 + a 4 + a   1 2 3 4


  F5		        slow bend C5			      G5  slow bend
|-------------------------------|---------------------------|-----------------|
|-------------------------------|---------------------------|-----------------|
|-------3---------------3hb-----|------------5hbr(5)p3h5----|(5)fb------------|
|-3-4-5---5v--------------------|---------------------------|-----------------|
|-\___/-------------------------|---------------------------|-----------------|
|-1/4t--------------------------|---------------------------|-----------------|
  1 + a 2 e + a 3 e + a 4 e + a   1  +  2  + 3 e  +  a 4  +   1 + 2 + 3 + 4 +

								 C5
|------------------------|---------|----------12---------------|-------------------------|
|------------------------|---------|-------15----15-12---------|-------------------------|
|-5--3--5-----3-----3qb--|---------|-14fb--------------14fb-14-|-12----14----12v---12-12-|
|----------5-------------|-5v------|---------------------------|----14----14-------------|
|------------------------|---------|---------------------------|-------------------------|
|------------------------|---------|---------------------------|-------------------------|
  1  +  2  +  3  +  4  +   1 2 3 4   1  +  2  +  3  +  4    +    1  +  2  +  3  +  4  +

  				  F5			    C5
|-------------------------------|-------------------------|-------------------------|
|-------------------------------|-------12-15-------------|----------------13-14-15-|
|-14p12-------12-12v---12-14-12-|-14fb--------14fbr-12----|-14----12-14(14)hb-------|
|-------14----------------------|----------------------14-|----14-------------------|
|-------------------------------|-------------------------|-------------------------|
|-------------------------------|-------------------------|-------------------------|
  1  e  +  a  2  +  3  +  4  +    1  +  2  +  3  +  4  +    1  +  2  +  3  +  4  +

  G5
|-------------------------|-------------------------------|
|----13-15----13-15----13-|-15----13-15----13-15p13----13-|
|-14hb-----14hb-----14hb--|----14hb-----14hb--------15hb--|
|-------------------------|-------------------------------|
|-------------------------|-------------------------------|
|-------------------------|-------------------------------|
  1  +  2  +  3  +  4  +    1  +  2  +  3  +  4  e  +  a
								 C5
|-------------------------------------------------|------------|------------|-----------|
|-15p13----13-15p13----13-15p13----13-15p13----13-|------------|------------|-----------|
|-------15hb--------15hb--------15hb--------15hb--|-----%------|-----%------|----%------|
|-------------------------------------------------|------------|------------|-----------|
|-------------------------------------------------|------------|------------|-----------|
|-------------------------------------------------|------------|------------|-----------|
  1  e  +  a  2  e  +  a  3  e  +  a  4  e  +  a    1  2  3  4   1  2  3  4  1  2  3  4 

  SLOWER
  F5                                    C5
         Oh,        won't     you      please             take   me
|--------------------------------------------------1/8t------------------|
|-15fb----13h15p13s\12-13-12h13p12------12-------/       \---------------|
|---------\__________/----\___/---14p12----14fbr(14)p12----14p12---------|
|----------1/64 notes--1/64notes\_____/-----------------14-------14-12fb-|
|---------------------------------1/8t-----------------------------------|
|------------------------------------------------------------------------|
  1   e   +     a      2        +       3  e     +         4  e  +  a


 FREE TIME
  G5
  home.____________________________________________________________________________
|-------------------|--------------------------------------------------------------|
|-------------------|-------------------------------------------1/8t---------------|
|---------------5hb-|-5hbr(5)p3-5p3---5hbr(5)p3---5---3qb--3qb-/   \---1/8t--1/8t--|
|(12)r--------------|-\_______/-----5-\_______/-5---5----5-----5-3----/   \-/    \-|
|-------------------|---1/8t----\___/---1/8t----\___/-\____/--------5-4-3-5-3hbr-1-|
|-------------------|-----------1/8t-------------1/8t--1/8t------------------------|
  1 + 2 + 3 + 4 +     1         +     2         +     3        +    4       +

			      slow bend
 _____________________
|---------------------------|------------|------------|------------|
|---------------------------|------------|------------|------------|
|-------------------------3-|(3)hb-------|(3)---------|------------|
|-----s/5-(5)v--------------|------------|------------|-5s\--------|
|-3-1-2---------------------|------------|------------|-5s\--------|
|---------------------------|------------|------------|-3s\--------|
  1 e + a  2  +  3  +  4  +   1  2  3  4   1  2  3  4   1  2  3  4

Que te parecio? Calificalo con estrellas!!

Rating: 8.1/10 (459 votos)

Este fichero es trabajo propio de su transcriptor y representa su interpretación personal de la canción. El material contenido en esta página es para exclusivo uso privado, por lo que se prohibe su reproducción o retransmisión, así como su uso para fines comerciales.


Deja tus comentarios:

Letras de Guns N´ Roses
Letras de canciones | Musica Independiente