Enviado por:
yeimar griego

Reik, Que Vida La Mia

Imprimir
INTRO
1|-----------------------------5-5---------------------------|
2|--2---2---2-2/33-2---2----2-------2---2---2-2/33-2---2---2-|
3|--2/4-2/4-2-2--2-2/4-2/4--2-------2/4-2/4-2-2--2-2/4-2/4-2-|
4|--2---2---2-2--2-2---2----2-------2---2---2-2--2-2---2---2-|
5|--0---0---0-0--0-0---0----0-------0---0---0-0--0-0---0---0-|
6|-----------------------------------------------------------|


  me despierto en la mañana para verte pasar y tenerte
  en mi mente por el resto del diaaaaaaaa (fijense bien en el ritmo)
1|---------------------------------2---2---2-2--2-----------|
2|--2---2---2-2/33-2---2---2-2/33--2/3-2/3-3-2/33-----------|
3|--2/4-2/4-2-2--2-2/4-2/4-2-2--2--4---4---4--4-4-----------|
4|--2---2---2-2--2-2---2---2-2--2--4---4---4--4-4-----------|
5|--0---0---0-0--0-0---0---0-0--0--2---2---2--2-2-----------|
6|---------------------------------2---2---2--2-2-----------|


      E
Que vida, la mia...


Aun no se tu nombre y ya eres dueña de mi
y me paso todo el dia imaginando tu risaaaaa

1|---------------------------------2---2---2-2--2-----------|
2|--2---2---2-2/33-2---2---2-2/33--2/3-2/3-3-2/33-----------|
3|--2/4-2/4-2-2--2-2/4-2/4-2-2--2--4---4---4--4-4-----------|
4|--2---2---2-2--2-2---2---2-2--2--4---4---4--4-4-----------|
5|--0---0---0-0--0-0---0---0-0--0--2---2---2--2-2-----------|
6|---------------------------------2---2---2--2-2-----------|

     E
Que vida, la mia...

  D                   C#m
Nose que hacer, para ser el aire que
           Bm       G          D
va a tu alrededor y acaricia tu piel...

              D
Solo quiero conversar, solo quiero conocerte,
A
dame un poco de tu tiempo para convencerte,
F#m            C#m         Bm                  G/D
Yo solo quiero ser tu amigo, y me muero por salir contigo,

  D
dame una señal, solo dame una mirada,
 A
si estas a mi lado, a mi no me importa nada,
F#m               C#m           Bm                G/D
ya quiero estar entre tus brazos, y me muero por probar tus labios,
D        A      Bm
rojos, llenos de ti...
D        C#m      A
Solo dime que si...

INTRO
1|-----------------------------5-5--|
2|--2---2---2-2/33-2---2----2-------|
3|--2/4-2/4-2-2--2-2/4-2/4--2-------|
4|--2---2---2-2--2-2---2----2-------|
5|--0---0---0-0--0-0---0----0-------|
6|----------------------------------|

Me desvelo en las noches para pensar en ti,
y si duermo solo sueño con tener tus caricias,

1|---------------------------------2---2---2-2--2-----------|
2|--2---2---2-2/33-2---2---2-2/33--2/3-2/3-3-2/33-----------|
3|--2/4-2/4-2-2--2-2/4-2/4-2-2--2--4---4---4--4-4-----------|
4|--2---2---2-2--2-2---2---2-2--2--4---4---4--4-4-----------|
5|--0---0---0-0--0-0---0---0-0--0--2---2---2--2-2-----------|
6|---------------------------------2---2---2--2-2-----------|

    E
Que vida, la mia...

Tengo todo este amor y solo es para ti,
y yo solo me conformo con mirarte otro dia,

1|---------------------------------2---2---2-2--2-----------|
2|--2---2---2-2/33-2---2---2-2/33--2/3-2/3-3-2/33-----------|
3|--2/4-2/4-2-2--2-2/4-2/4-2-2--2--4---4---4--4-4-----------|
4|--2---2---2-2--2-2---2---2-2--2--4---4---4--4-4-----------|
5|--0---0---0-0--0-0---0---0-0--0--2---2---2--2-2-----------|
6|---------------------------------2---2---2--2-2-----------|

   E
Que vida, la mia...

No se que hacer para ser el aire que va a tu alrededor,
que acaricia tu piel...

Solo quiero conversar, solo quiero conocerte,
dame un poco de tu tiempo para convencerte,
Yo solo quiero ser tu amigo, y me muero por salir contigo,
dame una señal, solo dame una mirada,
si tu estas a mi lado, a mi no me importa nada,
ya quiero estar entre tus brazos, y me muero por
probar tus labios, rojos, llenos de ti...
Solo dime que si...

1|-----------------------------5-5---------------------------|
2|--2---2---2-2/33-2---2----2-------2---2---2-2/33-2---2---2-|
3|--2/4-2/4-2-2--2-2/4-2/4--2-------2/4-2/4-2-2--2-2/4-2/4-2-|
4|--2---2---2-2--2-2---2----2-------2---2---2-2--2-2---2---2-|
5|--0---0---0-0--0-0---0----0-------0---0---0-0--0-0---0---0-|
6|-----------------------------------------------------------|

Aviso: Este fichero es trabajo propio de su transcriptor y representa su interpretación personal de la canción. El material contenido en esta página es para exclusivo uso privado, por lo que se prohibe su reproducción o retransmisión, así como su uso para fines comerciales.
comentario del colaborador: ESPERO QUE LES GUSTE DUDAS, COMENTARIOS, SUJERENCIAS Y CORECCIONES ESTE ES MI CORREO:[email protected]

Califica esta canción


Comentarios en Facebook