Enviado por:
yeimar griego

Reik, Levemente

Imprimir
RB: Rasgueo hacia abajo
RA: Rasgueo Hacia arriba

Bm            G         D             A      Bm
Intento resolver, el misterio, de tu adios
              G                 D                   A     Bm
No tienes coartada, no tienes palabra, no tienes corazón
                 G   D              A    Bm
Un vuelo de tristeza,  empaña mi visión
           G          D          A
Es sobrepasado, el umbral del dolor

  --Bm--      --G--        --D--      --A--
-2--------- -3--------- ----------- -----------
-2-------2- -5-------5- ---------0- -0-------0-
-4-------4- -5-------5- -0-------0- -3-------3-
-4-4-4-4-4- -4-4-4-4-4- -2-2-2-2-2- -3-3-3-3-3-
-3-3-3-3-3- -3-3-3-3-3- -3-3-3-3-3- -3-3-3-3-3-
-2-2-2-2--- -3-3-3-3--- -2-2-2-2--- -0-0-0-0---

 R R R R R   R R R R R   R R R R R   R R R R R     <---Rasgueos
 B A A B B   B A A B B   B A A B B   B A A B B

=-=-=-=-=-=-=-=-=-=-=-=-=-=-=-=-=-=-=-=-=-=-=-=-=-==-=-=-=-=-=-=-=-=-=-=

RB: Rasgueo hacia abajo
RA: Rasgueo Hacia arriba
RA*: Rasgueo LIGERO Hacia arriba

  Em                    G                        D
Tuuuu ausencia es el invierno mas largo que eh vivido


  --Em---      --G--        --D--
-0---------- -3--------- -------------------
-2--------2- -5-------5- -------------------
-2--------2- -5-------5- -0-----------------
-0--0-0-0-0- -4-4-4-4-4- -2-2-2-2-2-2-2-2-2-
-0--0-0-0-0- -3-3-3-3-3- -3-3-3-3-3-3-3-3-3-
-0--0-0-0--- -3-3-3-3--- -2-2-2-2-3-2-2-2-2-

 R  R R R R   R R R R R   R R R R R R R R R
 A* A A B B   B A A B B   B A A B B B A A B

  Em                    G                 A
Eeeel lamento y los recuerdos,  no se han ido


  --Em---      --G--        --A--
-0---------- -3--------- -------------------
-2--------2- -5-------5- -0-----------------
-2--------2- -5-------5- -3-----------------
-0--0-0-0-0- -4-4-4-4-4- -3-3-3-3-3-3-3-3-3-
-0--0-0-0-0- -3-3-3-3-3- -3-3-3-3-3-3-3-3-3-
-0--0-0-0--- -3-3-3-3--- -0-0-0-0-0-0-0-0-0-

 R  R R R R   R R R R R   R R R R R R R R R
 A* A A B B   B A A B B   B A A B B B A A B

(Este puente va antes de entrar al coro, 4/6 es shift slide o resbalar):
----------------------------
----------------------------
----------------------------
-4/6---6/4---4/2---0--------
----------------------------
-----5---3-------2---0------

=-=-=-=-=-=-=-=-=-=-=-=-=-=-=-=-=-=-=-=-=-=-=-=-=-==-=-=-=-=-=-=-=-=-=-=
(El rasgueo en esta parte es hacia abajo y hacia arriba continuo y rapido)

G: 3
   2
   0
   0
   3
   3

G                                             D   Riff para guit electrica
Levemente cada vez que el viento sopla te respiro 2da:-3/5-/10-/8-/7-/3---

G                                            D
Bajo el manto de la noche diariamente te alucino  2da:-3/5/7--------------

Riff para guit electrica (salida)
1era: -10----/7----------------

=-=-=-=-=-=-=-=-=-=-=-=-=-=-=-=-=-=-=-=-=-=-=-=-=-==-=-=-=-=-=-=-=-=-=-=
(Aquí vamos a hacer obvio que, si te aprendiste todo lo anterior lo que
sigue es igual, acordes y rasgueos)

Bm             G                       D                     A  Bm
Extraño tu fragancia, marchita desde entonces el tiempo la seco
                  G           D       A
Mi corazón no es una flor, irradia dolor
    Em                      G                          D
Tu silencio fue la mas triste conversación que haya tenido
    Em                       G                 A
No se cuanto tiempo desde entonces, ah transurrido


G                                             D
Levemente cada vez que el viento sopla te respiro
G                                            D
Bajo el manto de la noche diariamente te alucino
G                                             D
Levemente cada vez que el viento sopla te respiro
G                                            D
Bajo el manto de la noche diariamente te alucino

Riff para guit electrica
3ra: -2/7------------------------------------------
2da: ----------------------------3-----------------
1ra: --------5/7-5/7-7/5----/3/2------5/7-7-5/7--/10

Levemente......
(La canción termina en fade out)
Aviso: Este fichero es trabajo propio de su transcriptor y representa su interpretación personal de la canción. El material contenido en esta página es para exclusivo uso privado, por lo que se prohibe su reproducción o retransmisión, así como su uso para fines comerciales.
comentario del colaborador: ESPERO QUE LES GUSTE DUDAS,COMENTARIOS Y CORECCIONES ESTE ES MI CORREO:[email protected]

Califica esta canción


Comentarios en Facebook