Acordes y tablaturas para guitarra

Acordes y Tablaturas
Usuario: Password:

Buscar:
Acordes y Tablaturas >> Letra R >> Acordes de Reik >> INVIERNO
Tablatura de INVIERNO, Reik

INVIERNO

Reik






:::Acordes:::
       eBGDAE eBGDAE
E    : 001220 778990
C#m  : 45664x
G#m  : 444664
A    : 02220x 556775
F#m  : 222442
B    : 23332x

******************************************************
Intro [0:0] - Julio (Ritmo) {G. Acústica}
            - Guitarra1 (Punteado) {G. Acústica}
            - Guitarra2 (Punteado) {G. Acústica}
            - Guitarra3 [Fill1] {G. Acústica}
            - “Bibi” (Punteado) {G. Eléctrica}

==== Julio ====
   C#m      C#m      C#m       A        A        A
e|--------------------------|--------------------------|
B|--5--x--x--5--x--x--5--x--|--------------------------|
G|--6--x--x--6--x--x--6--x--|--6--x--x--6--x--x--6--x--|
D|--6--x--x--6--x--x--6--x--|--7--x--x--7--x--x--7--x--|
A|--4--x--x--4--x--x--4--x--|--7--x--x--7--x--x--7--x--|
E|--------------------------|--5--x--x--5--x--x--5--x--|
    ^        ^        ^        ^        ^        ^

    E        E        E        B        B        B
e|--------------------------|--------------------------|
B|--------------------------|--4--x--x--4--x--x--4--x--|
G|--9--x--x--9--x--x--9--x--|--4--x--x--4--x--x--4--x--|
D|--9--x--x--9--x--x--9--x--|--4--x--x--4--x--x--4--x--|
A|--7--x--x--7--x--x--7--x--|--2--x--x--2--x--x--2--x--|
E|--0--x--x--0--x--x--0--x--|--------------------------| (x2)
    ^        ^        ^        ^        ^        ^

==== Guitarra1 y Guitarra2 ====
(Esta parte se la puede tocar también con una guitarra de 12 cuerdas
 pero en la canción se la toca con 2)
    C#m                A    E                  B
e|-------------------|---|-------------------|---|
B|-------------------|---|----------5---7--4-|---|
G|--6-----4--6-------|---|-------------------|---|
D|-----6-------------|---|------4/6----------|---|
//Guitarra1
Guitarra2
e|--9-----7--9-------|---|-------------------|---|
B|-----9-------------|---|----------5--------|---|
G|-------------------|---|-------------------|---|
D|-------------------|---|-4/6--(6)----------|---|

    C#m                A    E                   B
e|-------------------|---|-------------------|-------------------|
B|-------------------|---|--------------7/4--|-------------------|
G|--6-----4--6-------|---|----------4--------|-------------4/6---|
D|-----6-------------|---|--4---4h6----------|-------------------|
//Guitarra1
Guitarra2
e|--9-----7--9-------|---|-------------------|-------------7/9---|
B|-----9-------------|---|-------------------|-------------------|
G|-------------------|---|-------------------|-------------------|
D|-------------------|---|-------------------|-------------------|

******************************************************
Fill1 [0:07] [0:31] [3:09] - Guitarra3 (Arpegio)

e|---4-|---------4----------5-|---------5----------4-|
B|-----|---5----------5-------|---5----------5-------|
G|-----|------6----------6----|------6----------6----|
D|-----|----------------------|----------------------|

e|---------4----------2-|---------2-------------|
B|---5----------5-------|---4----------4--------|
G|------4----------4----|------4----------4-----|
D|----------------------|-----------------------|

******************************************************
Verso1 [0:15] – Julio (Ritmo)
              - “Bibi” (Punteado)
              - Guitarra3 (Arreglo)

/El rasgado es el mismo que el de la Intro/

C#m           A             E           B            C#m
  Llueve afuera, llueve además está desierta la ciudad,
                 A           E            B     (Fill1)x2
  mientras tú y yo nos refugiamos en la eternidad.
C#m           A   E        B   C#m          A            E   B
  No siento frío cerca de ti. Dentro de mí brilla el sol.

******************************************************
Coro [0:47] [1:42] [2:29] – “Bibi” (Punteado)
                          - Julio (Ritmo)
                          - Bajo
                          - Guitarra4 (Distorsión) {G. Eléctrica}

==== “Bibi” ====
        E                C#m              G#m              A
e|---4|-----4----------|-------4--------|-------4--------|-------5-------7|
B|----|-5--------------|-----5----(5)---|-----4-----4----|-----5-----5----|
D|----|---4------------|---6--------(6)-|---4---------4--|-4/6---------6--|
G|----|----------------|----------------|----------------|----------------|
A|----|----------------|-4--------------|----------------|----------------|
E|----|----------------|----------------|-4--------------|----------------|

   E              C#m              G#m              A
e|-----4----------|-------4--------|-------4--------|-------5--------|
B|-5--------------|-----5----(5)---|-----4-----4----|-----5-----5----|
D|---4------------|---6--------(6)-|---4---------4--|-4/6---------6--|
G|----------------|----------------|----------------|----------------|
A|----------------|-4--------------|----------------|----------------|
E|----------------|----------------|-4--------------|----------------|

   F#m               E     B          F#m               A
e|-------2---------|-4-----2--------|-------2---------|-5--------------|
B|-----------2-----|---5-------4----|-----2-----2-----|----------------|
D|-----2--------4/6|-----6-------4--|---2----------4/6|----------------|
G|-----------------|----------------|-----------------|----------------|
A|-----------------|----------------|-----------------|----------------|
E|-2---------------|----------------|-2---------------|----------------|

E            C#m            G#m    A
  Se cae el cielo y que más da, tenemos nuestro mundo.
E        C#m           G#m       A
  El día sigue siendo azul si estamos juntos.
F#m           E - B   F#m           A          [Puente]
  No importa nada más,  que aquí jamás será invierno, invierno.

******************************************************
Puente1 [1:10] - Bajo
               - “Bibi” (Punteado)
               - Batería
               - Julio (Ritmo)[Volumen muy bajo]
==== “Bibi” ====
e|------------/7--|------------12--|--------------12|-14-------------|
B|----------------|-------------5--|----------------|----------------|
D|------------/4--|----------------|----------------|----------------|
G|----------------|----------------|----------------|----------------|
invierno (inviernooooo),   invierno (inviernooooo oooo oooo)

******************************************************
Verso2 [1:18] - “Bibi”
              - Bajo
              - Batería
              - Julio (Rasgado) [Al final de la estrofa]

(Palm Mute)
   C#m5             A5                E5               B5
e|----------------|-----------------|----------------|----------------|
B|----------------|-----------------|----------------|----------------|
D|-6-x-x-6-x-x-6-x|-----------------|-9-x-x-9-x-x-9-x|-4-x-x-4-x-x-4-x|
G|-6-x-x-6-x-x-6-x|-7-x-x-7-x-x-7-xx|-7-x-x-7-x-x-7-x|-4-x-x-4-x-x-4-x|
A|-4-4-4-4-4-4-4-x|-7-4-4-7-x-x-7-xx|-7-7-7-7-7-7-7-x|-2-2-2-2-2-2-2-x|
E|----------------|-5-5-5-5-5-5-5-xx|----------------|----------------|

   C#m5             A5                E5               B5
e|----------------|----------------|----------------|----------------|
B|----------------|----------------|----------------|----------------|
D|-6-x-x-6-x-x-6-x|----------------|-9-x-x-9-x-x-9-x|-4-x-x-4-x-x-x-x|
G|-6-x-x-6-x-x-6-x|-7-x-x-7-x-x-7-x|-7-x-x-7-x-x-7-x|-4-x-x-4-x-x-x-x|
A|-4-4-4-4-4-4-4-x|-7-4-4-7-x-x-7-x|-7-7-7-7-7-7-7-x|-2-2-2-2-x-2-2-2|
E|----------------|-5-5-5-5-5-5-5-x|----------------|----------------|

(Clean)
   F#m              E     B          F#m                A
E|-------2--------|-4-----2--------|-------2----------|-5--------------|
B|-----------2----|---2-------2----|-----------2------|----------------|
G|-----2-------2--|-----2-------2--|-----2-------2-4/6|----------------|
D|----------------|----------------|------------------|----------------|
A|----------------|----------------|------------------|----------------|
E|-2--------------|----------------|-2----------------|----------------|

C#m          A            E              B           C#m
  Tanto ruido, tanta soledad, gente que corre sin parar
                A            E            B
  tras la puerta de este universo de infinita paz.
F#m           E - B   F#m      A
  Necesito la calma que tú me das.

******************************************************
Verso3 [2:05] - “Bibi” (Punteado)
              - Julio (Rasgado)
              - Bajo
              - Batería

   C#m              A                E                B
e|-4-----4-------5|-------5-------7|-7-----7-------7|-------7---------|
B|---5-------5----|---5-------5----|---5-------5----|---4----------5-5|
G|----------------|----------------|----------------|-----------------|

   C#m              A                E                B
e|-4-----4-------5|-------5-------7|-7-----7-------7|-7-----7--------|
B|---5-------5----|---5-------5----|---5-------5----|---4-------4----|
G|----------------|----------------|----------------|----------------|

 C#m                           A                       E
Nubes, viento, miedo, lluvia, noches grises, ni una luna,
                    B
otro invierno de oscuridad.
 C#m                       A                  E
Tú me besas, tú me curas, tu calor y tu ternura
                 B
no lo dejará entrar.

******************************************************
Puente2 [2:21] - Julio (Rasgado)
               - Bajo
               - Batería
    F#m      A    B       A
e|---2---|---0----2---|---5---|---5-5-5-5-5-5-5-|
B|---2---|---2----4---|---5---|---5-5-5-5-5-5-5-|
G|---2---|---2----4---|---6---|---6-6-6-6-6-6-6-|
D|---4---|---2----4---|---7---|---7-7-7-7-7-7-7-|
A|---4---|---0----2---|---7---|---7-7-7-7-7-7-7-|
E|---2---|------------|---5---|---5-5-5-5-5-5-5-|
     ^       ^    ^       ^       ^ ^ ^ ^ ^ ^ ^
Invierno (invierno), invierno (inviernooooooooooo)

******************************************************
Puente3 [2:53] y Outro [3:00] - Bajo
                              - Guitarra1 (Punteado)
                              - Guitarra2 (Punteado)
                              - “Bibi” (Punteado) [Final]
                              - Guitarra3 [Fill1]x2
                              - Batería

==== Guitarra1 y Guitarra2 ====
e|-------------------|---|-------------------|---|
B|-------------------|---|----------5---7--4-|---|
G|--6-----4--6-------|---|-------------------|---|
D|-----6-------------|---|------4/6----------|---|
//Guitarra1
Guitarra2
e|--9-----7--9-------|---|-------------------|---|
B|-----9-------------|---|-------------------|---|
G|-------------------|---|-------------------|---|
D|-------------------|---|-------------------|---| (x4)

==== “Bibi” ==== (3:22)

e|--12--|--11--|--7--|--4--|--2--|------|
B|------|------|-----|------|------|--2--|

...invierno (invierno), invierno (invierno).
   Se cae el cielo y que más da, ohhh ohhhh
Riff1(x2)
   El día sigue siendo azul, ohhhh uhhhhh
   (Se cae el cielo y que más da,)
                       (“Bibi”)
   tenemos nuestro mundoooo.

******************************************************
))))))) B A J O (((((((

==== Coro ====
G|----------------|----------------|----------------|-----------------|
D|-2-2-2-2-2-2-2-2|----------------|----------------|-----------------|
A|----------------|-4---4-4-4-----4|----------------|-0---0-0-0-0-0-0/|
E|----------------|----------------|-4---4-4---4-4-4|-----------------|

G|----------------|----------------|----------------|----------------|
D|-2---2-2--------|----------------|----------------|----------------|
A|---------------2|-4---4-4-4-4-4-4|----------------|-0---0-0-0-0-0-0|
E|-----------0-4--|----------------|-4-----4-4-4-4-4|----------------|

G|----------------|----------------|----------------|----------------|
D|----------------|----------------|----------------|----------------|
A|-------4-4------|-------2-2------|-----------4-4--|-0--------------|
E|-2--------------|-0-------------4|-2-----2-2-----2|----------------|

==== Puente1 ====
G|----------------|----------------|----------------|----------------|
D|----------------|----------------|-2-----2-----2-|-1--------------|
A|-/4----------4-|-0-----0-----0--|----------------|-------2--------|
E|----------------|----------------|----------------|-------------4--|

==== Verso2 ====
G|----------------|----------------|----------------|----------------|
D|----------------|----------------|-2-2---2-------2|-1-1---1--------|
A|-4-----4--------|-0-----0-------2|----------------|----------------|
E|---------------4|----------------|----------------|-------------0-4|

G|----------------|----------------|----------------|----------------|
D|----------------|----------------|-2-2-2-2-2-2-2-2|-1-1-1-1-1-2-1--|
A|-4-4-4-4-4-4-4-4|-0-0-0-0-0-0-0-0|----------------|---------------2|
E|----------------|----------------|----------------|----------------|

G|----------------|----------------|----------------|----------------|
D|----------------|-2-2-2----------|----------------|----------------|
A|----------------|---------2-2-2-2|----------------|-0-0-0-0-0-0-0-0|
E|-2-2---2-2-2-2-2|----------------|-2-2-2-2-2-2-2-2|----------------|

==== Verso3 ====
G|----------------|----------------|----------------|----------------|
D|----------------|----------------|-2-2---2---2----|----------------|
A|-4-4---4---4---4|---------------2|---------------2|---2---2---2---2|
E|----------------|-5-5---5---5----|----------------|----------------|(x2)

==== Puente2 ====
G|----------------|---------4------|----------------|----------------|
D|-4--------------|-2-----------/6-|-4--------------|----------------|
A|----------------|----------------|----------------|-0-0-0-0-0-0-0-0|
E|----------------|----------------|----------------|----------------|

==== Puente3 ====
G|----------------|-------2-----2--|----------------|----------------|
D|----------------|----------------|-/2----2-----2--|-/1----1-----1-|
A|-4--------------|-0--------------|----------------|----------------|
E|----------------|----------------|----------------|----------------|

==== Outro ====
G|----------------|----------------|----------------|----------------|
D|----------------|----------------|-------------2/4|-1-----2-----2--|
A|-4-----4--------|----------------|----------------|----------------|
E|----------------|-/5----5-----5--|----------------|----------------|

G|---2/4/2--------|-4/8---9--------|-4-4/6/8-9------|-8-----4--------|
D|-2-------2------|----------------|----------------|-------------4--|
A|----------------|----------------|----------------|----------------|
E|---------------2|----------------|----------------|----------------|

:::Leyenda TAB:::
/ - Slide
h - Hammer Up
p - Pull Off
x - Nota Muerta
^ - Rasgado desde arriba hacia abajo
v - Rasgado desde abajo hacia arriba


Que te parecio? Calificalo con estrellas!!

Rating: 5.8/10 (100 votos)

Este fichero es trabajo propio de su transcriptor y representa su interpretación personal de la canción. El material contenido en esta página es para exclusivo uso privado, por lo que se prohibe su reproducción o retransmisión, así como su uso para fines comerciales.


Comentario de yeimar griego
ESPERO QUE LES GUSTE Dudas, comentarios, correcciones a mi e-mail:[email protected]
Deja tus comentarios:

Letras de Reik
Letras de canciones | Musica Independiente