Acordes y tablaturas para guitarra

Acordes y Tablaturas
Usuario: Password:

Buscar:
Acordes y Tablaturas >> Letra E >> Acordes de Evanescence >> Broken
Tablatura de Broken, Evanescence

Broken

Evanescence

Transcriptor:
alejandrocoria
Letras de Canciones
Acordes para Guitarra





   

Intro/Verse 
e-2h3-----3--3------3---------2h3-----3--3------3---------| 
B-----0------3----3---3-----3-----0------3----3---3-----3-| 
G-------0----0--0---------0---------0----0--0---------0---| 
D-2---------------------0-----2---------------------0-----| 
A------------3---------------------------3----------------| 
E---------------------------------------------------------| 
 
e-2h3-----3--3------3----------0h2-----3p2---0h2-------3p2-----| 
B-----0------3----3---3-----3------3-------3-----3---3-----3---| 
G-------0----0--0---------0----------2-------------2---------0-| 
D-2---------------------0------0-------------0-----------------| 
A------------3-------------------------------------------------| 
E--------------------------------------------------------------| 
 
Chorus w/o distortion 
  C      Em    D    C      Em    D    C      Em    D    C      
Em 
e-000000-0--000222--000000-0--000222--000000-0--000222--000000-0-|-(12)-| 
B-111111-0--0003330-111111-0--0003330-111111-0--0003330-111111-0-|-(12)-| 
G-000000-0--0002220-000000-0--0002220-000000-0--0002220-000000-0-|------| 
D-222222-2--2220000-222222-2--2220000-222222-2--2220000-222222-2-|------| 
A-333333-2--222---0-333333-2--222---0-333333-2--222---0-333333-2-|------| 
E--------0--000------------0--000------------0--000------------0-|------| 
 
Chorus w/ distortion 
  C      Em     D                                          Last 
Time 
e-------------------------                            
e-----------------| 
B-------------------------                            
B-----------------| 
G-5-55xx--------777-7----- <---Play 3x                
G-5-55xx----------| 
D-5-55xx-2--222-777-7-----                            
D-5-55xx-2--------| 
A-3-33xx-2--222-555-0-----                            
A-3-33xx-2--------| 
E--------0--000-----------                            
E--------0--------| 
 
Solo                played with CHORDS 
------------------------------|----------0-----------| 
------------------------------|------0-------0-------| 
--------------0-------------0-|----------------------| 
--------0-2-------4---2p0-4---|--2-------------------| 
----0-2-----------------------|----------------------| 
--0---------------------------|----------------------| 
                                                            
------------------------------|--------0------------------| 
------------------------------|-----3-----3------0-0-0-0--| 
--------------0-------------0-|--2-----------2-2----------| 
--------0-2-------4---4p0-4---|---------------------------| 
----0-2-----------------------|---------------------------| 
--0---------------------------|---------------------------| 
 
Chords            THESE ARE THE CHORDS 
  Em      C       Em      C       Em      C       Dsus2 
e-0--0000-0---000-0--0000-0---000-0--0000-0---000-0-|---------- 
B-0--0000-1---111-0--0000-1---111-0--0000-1---111-3-|<-(7)-----played 
same 
G-0--0000-0---000-0--0000-0---000-0--0000-0---000-2-|<---(7)---  
time as 
D-2--2222-2---222-2--2222-2---222-2--2222-2---222-0-|<-----(7)-  
 Dsus2 
A-2--2222-3---333-2--2222-3---333-2--2222-3---333---|---------- 
E-0--0000---------0--0000---------0--0000-----------|---------- 
 
Fill                                                       Last 
time 
e-15-14---15-14---15-14-15-14---17-15-14--14-        
-15-14---15-14------| 
B------15------15------------15---------17---        
------15------15-17-| 
G-------------------------------------------- 3x     
--------------------| 
D--------------------------------------------        
--------------------| 
A--------------------------------------------        
--------------------| 
E--------------------------------------------        
--------------------| 
 
 
Outro                played with CHORDS                Em   End 
e-(12)---------------------(12)------------------------0-|------- 
B-----(12)-13------------------(12)-13----(7)----------0-|<-(12)-played 
same 
G--------------------------------------------(7)-------0-|<-(12)- 
 time as 
D---------------(12)----------------------------(7)----2-|<-(12)- 
   Em 
A-------------------(12)-------------------------------2-|------- 
E---------------------(12)-----------------------------0-|------- 
 
 

solamente son los punteoss del temaa
cualquier consulta en [email protected]
 

 


Que te parecio? Calificalo con estrellas!!

Rating: 7.8/10 (182 votos)

Este fichero es trabajo propio de su transcriptor y representa su interpretación personal de la canción. El material contenido en esta página es para exclusivo uso privado, por lo que se prohibe su reproducción o retransmisión, así como su uso para fines comerciales.


Deja tus comentarios:
Letras de canciones | Musica Independiente