Enviado por: wwe
Agrandar Letra
Reducir Letra
Imprimir

Acordes:
½ tono
| +0 |
½ tono
||
Volver










Ely Guerra, Ojos Claros Labios Rosas

 ::Intro::

e------------------------------
B------------------------------
G------------------------------
D------------------------------
A------------------------------
E--5--0--3--5--0--3--5--0--3--5  x2


::Verso::

Sentí de momento...

e------------------------------
B------------------------------
G------------------------------
D------------------------------
A------------------------------
E--5--0--3--5--0--3--5--0--3--5

Me voló el sentido...

e------------------------------
B------------------------------
G------------------------------
D------------------------------
A--3-----2---------------------
E---5--3----0--3--5--0--3--5--- x2



  Am
Uh uh uuuh

  F
Uh uh uuuh

  Am
Uh uuuh uuuh

  F
Uh uh uuuh uuuuhh


::Coro::


C              G
Tengo el corazón herido

Am             F
solo pienso en tus cariños

C            G
ojos claros, labios rosas

Am               F
déjame que te haga cosas

C          G
tu mirada me lo ah dicho

Am          F
soy deseo inadvertido

C            G
ojos claros, labios rosa

F
creo que mi fuego te provoca


Intro...

Verso...

Coro...


Am x4

e------------------------------
B------------------------------
G------------------------------
D------------------------------
A------------------------------
E--0--3--5--0--3--5--0--3--5--- x2

e------------------------------
B------------------------------
G------------------------------
D------------------------------
A------------------------------
E--5--0--3--5--0--3--5--0--3--5

e------------------------------
B------------------------------
G------------------------------
D------------------------------
A------------------------------
E--0--3--5--0--3--5--0--3//////



 
Aviso: Este fichero es trabajo propio de su transcriptor y representa su interpretación personal de la canción. El material contenido en esta página es para exclusivo uso privado, por lo que se prohibe su reproducción o retransmisión, así como su uso para fines comerciales.
comentario del colaborador: la cuerda

Califica esta canción


Comentarios en Facebook


Más canciones de Ely Guerra: