Enviado por: stay696
Agrandar Letra
Reducir Letra
Imprimir


Otras Versiones de el baston del diablo:

tierra santa, el baston del diablo

bueno, aca les dejo una muy buena cancion de tierra santa spero y les sirva soy nuevo je



Acordes del intro
(esto se repite 4 veces)

--9---7---5---4--]
--10--9---5---4--]
--11--9---7---6--]
--11--7---7---6--]
--9---7---5---4--]
--x---x---x---x--]

Requinto del intro
(se repite 2 veces)

-------------------7---------------------------------------
--7--9-7-5-7--9-10---10-9-5--7-9-10-9-7-10-9-7-9--10-9-7-9-
-----------------------------------------------------------
-----------------------------------------------------------
-----------------------------------------------------------
-----------------------------------------------------------

-------------------7-------------------------10-9-10-9-7-9-
--7--9-7-5-7--9-10---10-9-5--7-9-10-9-7-10-9---------------
-----------------------------------------------------------
-----------------------------------------------------------
-----------------------------------------------------------
-----------------------------------------------------------
Bajo la luz de un callejón
se escucha la voz de un anciano
contando la historia de un hombre
que luchó por su libertad.                     
Con su voz ronca y humilde
contó la historia de un viejo señor
que dominaba a los hombres
sentado en un viejo sillón.

RIFF 1 X8 (1:03)

-------------------7---------------------
--7---7-9-10--9-10----10-9-7-10-9-7------
----9-------------------------------9----
-----------------------------------------
-----------------------------------------
-----------------------------------------

acompañamiento del RIFF 1
2 veces (la 1a vez pausado)

-------------------------------------------------
-------------------------------------------------
----------------7xxx--4xx--6xx-------------------
----4xxx--2xxx--7xxx--4xx--6xx-------------------
----4xxx--2xxx--5xxx--2xx--4xx-------------------
----2xxx--0xxx-----------------------------------

VERSO 1 (X2)

--------------------------------------------------
--------------------------------------------------
--------------7----6------------------------------
----4----2----7----6------------------------------
----4----2----5----4------------------------------
----2----0----------------------------------------
Con un bastón en su mano
el dictador proclama su ley
pero un dia un hombre
se reveló contra su poder
Dominado por el miedo
el dictador a su familia mató,
poseido por el odio
él darle muerte juró.

CORO 1 (X2)

------------------------------------------------
------------------------------------------------
--------7xxx--4xxx--2xx--6xx--------------------
--4xxx--7xxx--4xxx--2xx--6xx--------------------
--4xxx--5xxx--2xxx--0xx--4xx--------------------
--2xxx------------------------------------------

RIFF 1 (X4)

RIFF 2 (2:24) (X4)

-----------------------------------7~~-----------
--7---7-9-10-7-9-10-7-9-10-7-9-10----------------
----9--------------------------------------------
-------------------------------------------------
-------------------------------------------------
-------------------------------------------------

1er acompañamiento del solo de guitarra (2:36)
2 veces

-------------------------------------------------
-------------------------------------------------
----------------7xxx--4xx--6xx-------------------
----4xxx--2xxx--7xxx--4xx--6xx-------------------
----4xxx--2xxx--5xxx--2xx--4xx-------------------
----2xxx--0xxx-----------------------------------

2o acompañamiento del solo de guitarra (2:58)(X2)

-----------------------------------
-----------------------------------
--7--9--11-------------------------
--7--9--11--11-12-11---11-12-11----
--5--7--9------------9-------------
-----------------------------------

-----------------------------------
-----------------------------------
--7--9--6--------------------------
--7--9--6--6-7-6----6-7-6----------
--5--7--4--------4-----------------
-----------------------------------

pequeño requintito despues del solo (3:23)

------------------------------
------------------------------
--7~~-6~~---------------------
-----------7~~-4~~------------
------------------------------
------------------------------

VERSO 2 (igual que el 1, pero con el RIFF 1 
por detras con palm muting)

La noche se va aferrando
y la historia llega a su fín,
el joven se ha vengado
y el dictador ha tenido que huir
Ya no quedan palabras
y su relato el anciano acabó,
solo queda una pregunta,
que es la que yo me hago hoy.

CORO 2 (igual al 1, pero este va 3 veces)

RIFF 3 (4:28)
(X2)

--------------------7--------------------
--7---9---10---9---------10---9----------
----6---6----6---6-----6----6---6--9--6--
-----------------------------------------
-----------------------------------------
-----------------------------------------

--------------------7--------------------
--7---9---10---9---------10---9----------
----6---6----6---6-----6----6---6--9--6--
-----------------------------------------
-----------------------------------------
-----------------------------------------

--------------------7--------------------
--7---9---10---9---------10---9----------
----6---6----6---6-----6----6---6--9--6--
-----------------------------------------
-----------------------------------------
-----------------------------------------

--------------------9---7----------------
--7---9---10---9------------10---9-------
----6---6----6---6----6---6----6---6-----
-----------------------------------------
-----------------------------------------
-----------------------------------------

RIFF 2 (X4)
Aviso: Este fichero es trabajo propio de su transcriptor y representa su interpretación personal de la canción. El material contenido en esta página es para exclusivo uso privado, por lo que se prohibe su reproducción o retransmisión, así como su uso para fines comerciales.

Califica esta canción


Comentarios en Facebook