Enviado por: xxblackxpinkxx
Agrandar Letra
Reducir Letra
Imprimir











Catupecu Machu, Magia Veneno

			     MAGIA VENENO - Catupecu Machu

Por: Sebastián Ar.
(Buenos Aires, Argentina, 2008)
Email: [email protected]

*Tuning: EADGBe
*Album: "El Número Imperfecto" (2004)

RIFF:
e|---------------------------------------------------------
B|---------------2-3-5--2--------2-3-5-2-------2-3-5-2-----
G|-2-4-2-2---2-2----------4--4-4---------4--4-4------------
D|---------------------------------------------------------
A|---------------------------------------------------------
E|---------------------------------------------------------

ACORDES:
e|---------------------
B|---------------------
G|---------------------
D|7----6----9-----4----
A|7----6----9-----4----
E|5----4----7-----2----
Aviso: Este fichero es trabajo propio de su transcriptor y representa su interpretación personal de la canción. El material contenido en esta página es para exclusivo uso privado, por lo que se prohibe su reproducción o retransmisión, así como su uso para fines comerciales.

Califica esta canción


Comentarios en Facebook