Acordes y tablaturas para guitarra

Acordes y Tablaturas
Usuario: Password:

Buscar:
Acordes y Tablaturas >> Letra A >> Acordes de Antonio Banderas >> La Balada del Pistolero
Tablatura de La Balada del Pistolero, Antonio Banderas

La Balada del Pistolero

Antonio Banderas






LAS NOTAS SON SOLO 3 PARA EL CORO
Y DOS PARA TODA CANCION

SON MI MENOS , LA MENOR Y SI7
ESTA ES LA UNICA VERSION Q TIENE LA PARTESOLO COMPLETA Y EXACTA
CUALKIER KOSA  ME ESCRIBEN A [email protected]
http://www.youtube.com/watch?v=VrXQXRDI17s  <<< es el link de
la balada del pistolero como la toko

==============================  INTRODUCCION  =========================



-------7-7--7-7--8--7--7----8--7-7-----|-.---
-----8-8-8--8-8--10-8--8-8--10-8-8-8-10!
---9---------------------9---------9-11|--------------
-9-------------------------------------|---------------------
---------------------------------------|--------------------
---------------------------------------|------------------


---------5-5--5-5---7--5-5-------7--5-5---------
-------7---7--7-7---8--7-7---7---8--7-7----7-8-------
-----8-----------------------8-------------8-9-----
----------------------------------------------------------
--------------------------------------------------------------
--------------------------------------------------------------

mim
Soy un hombre muy honrado,
                   si7
Que me gusta lo mejor

LAs mujeres no me faltan,
                  mim
Ni al dinero, ni el amor

jineteando en mi caballo
                    si7
por la sierra yo me voy

las estrellas y la luna
                     mim
ellas me dicen donde voy

lAm          mim
ay, ay, ay, ay
si7          mim
ay, ay mi amor
lAm          mim
ay mi morena,
si7          mim
de mi corazon


---> INTRODUCCION <---

me gusta tocar guitarra
me gusta cantar el son
un mariachi me acompaña
cuando canto my cancion

me gusta tomar mis copas
aguardiente es lo mejor
tambien la tequila blanco
con su sal le da sabor

ay, ay, ay, ay
ay, ay mi amor
ay mi morena,
de mi corazon

---> SOLO  <---
---------12----------------11---------------11------------------
-12---12-----12----12-0-12---12-10-12--0-12-----12-10-12-------
----12----------12----------------------------------------------
---------------------------------------------------------------
--------------------------------------------------------------
---------------------------------------------------------------

------12--------------12-------------------11-----------11----
-0- 12---12-10-12--0----12-10-12----0--12----12-10--12----10-12-
----------------------------------------------------------------
----------------------------------------------------------------
----------------------------------------------------------------
----------------------------------------------------------------

-------12---|------12-----12-------10---10---8---8---7---7--5--5
----12---------12-----12--------12-----12--------10------8-- -7-
-12----------12------12--------12-------------------------------
----------------------------------------------------------------
----------------------------------------------------------------
---------------------------------------------------------------

-3----3--2-2--0-------------------------------------------------
---5------3----3--1--0-------0-1-0-----------------------------
--------------------------2--------2-0-2-0----------------------
--------------------------------------------4-2-4-2----0--~~----
-----------------------------------------------------------3-2--
----------------------------------------------------------------

----------------------------------------------------------------
---0-0-0-4-5-7----0-0-0-5-7-8---0-0-0-4-5-7---------------------
---------------------------------------------------------------
----------------------------------------------------------------
--------------------------------------------------------------
----------------------------------------------------------------


---7--5--3--2--0------------------------------------------------
----------------------------------------------------------------
---8--5--4--2--0------------------------------------------------
----------------------------------------------------------------
----------------------------------------------------------------
----------------------------------------------------------------




me gusta tocar guitarra
me gusta cantar el sol
mariachi me acompana
quando canto my cancion *comienza a tocar en Em*

me gustan tomar mis copas
aguardiente es lo mejor
tambien la tequila blanco
con su sal le da sabor

ay, ay, ay, ay
ay, ay mi amor
ay mi morena,
de mi corazon

ay, ay, ay, ay
ay, ay mi amor
ay mi morena,
de mi corazon




-12-12-12-12-12-12-12-12-..... rápidamente
-12-12-12-12-12-12-12-12
-12-12-12-12-12-12-12-12
--------------------------
--------------------------
visiten www.youtube.com y miren la balada del pistolero putno 100%
yo la toke [email protected] es ig ualito al o k esta escrito chau


Que te parecio? Calificalo con estrellas!!

Rating: 8.4/10 (996 votos)

Este fichero es trabajo propio de su transcriptor y representa su interpretación personal de la canción. El material contenido en esta página es para exclusivo uso privado, por lo que se prohibe su reproducción o retransmisión, así como su uso para fines comerciales.


Deja tus comentarios:
Letras de canciones | Musica Independiente