Enviado por:
zsebax

Soda Stereo, Cuando Pase El Temblor

Intro:
1---------5---------3----------1----------7------------
2---------5---------3----------1----------6------------
3---------5---------5----------2----------8------------       x2
4---------7---------6----------3----------8------------
5---------7---------6----------3----------7------------
6---------5---------3----------1----------7------------
 
Esta parte se toca con el intro
Yo caminare entre las piedras hasta sentir el temblor
1-------8-----------8-----------8------------
2-------8-----------8-----------8------------
3-------9-----------10---------9------------
4-------10---------10---------10-----------
5-------10----------8----------10----------
6-------8------------8----------8-----------
                          En mis piernas
1----------3------------3-----------5---------------
2----------3------------3-----------5---------------
3----------3------------5-----------5----------------
4----------5------------5-----------7----------------
5----------5------------3-----------7--------------
6 ---------3------------3-----------5----------------
A veces tengo temor lo se a veces vergüenza 
1----------5----------5--------
2----------5----------5--------
3----------6----------2---------   esta ultima varias veces
4----------7----------4---------
5----------8----------2---------
6----------5----------2---------
Woooo  hooooo 
Esta igual se toca con el intro y se repite la secuencia de arriba 

Estoy sentado en cráter desierto………
Coro
 1…………..7----------9--------5----------7
2……………7----------9--------6----------6
3…………..8----------9---------7----------7      x2
4…………..9----------7---------0----------0
5…………..9----------7---------0----------0
6…………..7--------- 7---------0----------0
Hay una grieta en mi corazón un planeta con desilusión 
1-------6/8-------6-----------5/7-----5---------7/9------7--------------
2------------------7---------------------6--------------------8-------------
3------------------8---------------------7--------------------9-------------
4------------------0---------------------0--------------------0-------------
5------------------0---------------------0--------------------0-------------
6------------------0---------------------0--------------------0-------------
Luego tocas estas cuerdas fuertes 

1-------3------------
2-------1------------
3-------0------------
4-------2------------
5-------3------------
6-------0------------
Ou ueeeeeeeeeeee
Y el final es así 
Desliza la última cuerda con la uñeta desde abajo no tanto y viene 
Este va con el intro  
Uohohoh ohoho uo hohoho 

1-----------8----------10---------7------------
2-----------8----------10---------7------------
3-----------9----------10---------8-----------
4-----------10--------12---------9-----------
5-----------10--------12---------9-----------
6-----------8----------10---------7----------
El temblor  despiértame  cuando pase el temblor
Despiértame cuando pase el temblor 
Despiértame 
BUENO Y UDS LO TERMINAN COMO QUIERAN JEJEJEJE ESPERO HAYA AYUDADO UN POCO ESTA ES LA CORRECTA ¡A! ESTA TABLATURA ES PARA GUITARRA ELECTRICA PORQUE PARA LA OTRA GUITARRA PUEDE SER DIFICIL Y SE TOCA CON LOS DEDOS EN LAS NOTAS ¡¡¡OVIO ¡!! JAJAJA PERO APRETANDO Y SOLTANDO PARA DISMINUIR EL SONIDO. YA CUALQUIER DUDA ME ESCRIBEN A  [email protected]         XAO 
Aviso: Este fichero es trabajo propio de su transcriptor y representa su interpretación personal de la canción. El material contenido en esta página es para exclusivo uso privado, por lo que se prohibe su reproducción o retransmisión, así como su uso para fines comerciales.

Califica esta canción


Comentarios en Facebook