Acordes y tablaturas para guitarra

Acordes y Tablaturas
Usuario: Password:

Buscar:
Acordes y Tablaturas >> Letra M >> Acordes de METALLICA >> Master of Puppets
Tablatura de Master of Puppets, METALLICA

Master of Puppets

METALLICA






Artist: Metallica
Song: Master Of Puppets


            .-/                                    ~=-._
         .-~ /   ____  ______ __  _    _     _   ____|  ~-._
        ~~/  -~||  __||_  __//  || |  | |   | | / __/| .~~
         / . . ||  __| | |  / ' || |__| |__ | || (__ |   
        / / ~| ||____| |_| /_/|_||____|____||_| ___| | 
       / /   |-~                                     ~-|  
      ~

HAVE FUN and be sure to check out all teh other metllica albums i have submitted

------------------------------------------------------------------------------
------------------------------------------------------------------------------

Contents...
1. Battery                      : Clifford Veighey
2. Master Of Puppets            : Unknown but its all there
3. The Thing That Should Not Be : Brett Phillip Renike
4. Welcome Home (Sanitarium)    : Vassilis Tzerpos
5. Disposable Heros             : "eric" ?
6. Lepar Messiah                : Juerg M. Blum ([email protected])
7. Orion                        : Adam McCormack ([email protected])
8. Damage, Inc.                 : Greg and or Paul Halvorson ([email protected])

------------------------------------------------------------------------------
-------------------------------  Metallica  ----------------------------------
Battery
-------
                        BATTERY by Metallica
                   From the album "Master of Puppets"

        There's about half a dozen guitar parts on the intro where Jaymz
 layered acoustics, steel strings, spanish guitars and god knows what else.
 One acoustic plays riff  1 and the rest of the layered guitars play along
 the lines of riff 2 (I Think)

Acoustic Riff 1
e-|-----------------------------------|---------------------------------------
B-|-----------------------------------|---------------------------------------
G-|-----------------------------------|---------------------------------------
D-|--3--2-----------2-(2)-------------|--2-----------0--0-(0)-----------------
A-|--2--------------0-(0)-------------|--0--------------5-(5)-----------------
E-|--0--------------1-(1)-------------|--2--------------3-(3)-----------------

Acoustic Riff 2
e-|-----------------------------------|---------------------------------------
B-|-----------------------------------|---------------------------------------
G-|--4--5--------4-----------4--5-----|--4--5--------------------5--4---------
D-|--------7--------------------------|--------7-----5------------------------
A-|-----------------------------------|---------------------------------------
E-|-----------------------------------|---------------------------------------

Acoustic Riff 2b
e-|-----------------------------------|---------------------------------------
B-|-----------------------------------|---------------------------------------
G-|--4--5--------4-h5-p4-----4--5-----|--4--5--------------------5--4---------
D-|--------7--------------------------|--------7-----5------------------------
A-|-----------------------------------|---------------------------------------
E-|-----------------------------------|---------------------------------------

Start with Acoustic Riff 1 once and then while that keeps playing Gtr II plays

 Riff 2  Riff 2b Riff2  Riff2

Then the electrics come crashing in:-

    E5                E5 E5 F5         Gmaj7                     G5
e-|-----------------------------------|---------------------------------------
B-|-----------------------------------|---------------------------------------
G-|-----------------------------------|---------------------------------------
D-|--2-----------------2--2--3--------|--5-----------------5--5--5------------
A-|--2-----------------2--2--3--------|--5-----------------5--5--5------------
E-|--0-----------------0--0--1--------|--2-----------------2--2--3------------

While 2 other electrics play Riffs 2 and 2b
This continues for several bars and then

    E5    B5    G5   F#/Eb
e-|-----------------------------------|
B-|-----------------------------------|
G-|--------4--------------------------|
D-|--2-----4-----5-----4--------------|
A-|--2-----2-----5-----6--------------|
E-|--0-----------3--------------------|

Verse:
Riff 3                        Bb5    A5                               Em  F#/Eb
e-|--------------------------------------|------------------------------------
B-|--------------------------------------|------------------------------------
G-|--------------------------------------|------------------------------------
D-|-----------------------------8--8--7--|-----------------------------5--5--4
A-|-----------------------------8--8--7--|-----------------------------7--7--6
E-|--0-----0--0--0-----0--0--0--6--6--5--|--0-----0--0--0-----0--0--0---------
           ---t---     ---t---                    ---t---     ---t---

    Em                        Bb5    A5   F#5    G5         Ab5
e-|--------------------------------------|------------------------------------
B-|--------------------------------------|------------------------------------
G-|--------------------------------------|------------------------------------
D-|--5--------------------------8--8--7--|--4-----5-----5-----6---------------
A-|--7--------------------------8--8--7--|--4-----5-----5-----6---------------
E-|--------0--0--0-----0--0--0--6--6--5--|--2-----3-----3-----4---------------
           ---t---     ---t---

Play this twice but on the second time at the % play this
    A#5      A5       A5       A5
e-|--------------------------------------|
B-|--------------------------------------|
G-|--------------------------------------|
D-|--8--------7--------7--------7--------|
A-|--8--------7--------7--------7--------|
E-|--6--------5--------5--------5--------|

Then Fill 1 and into the verse

Fill 1 E5    G5    A5       F5 F5 F#/Eb??
e-|--------------------------------------|
B-|--------------------------------------|
G-|--------------------------------------|
D-|-----2-----5-----7--------------4-----|
A-|-----2-----5-----7--------3--3--6-----|
E-|-----0-----3-----5--------1--1--------|

Riff 3
e-|--------------------------------------|------------------------------------
B-|--------------------------------------|------------------------------------
G-|--------------------------------------|------------------------------------
D-|-----------------------------8--8--7--|-----------------------------5--5--4
A-|-----------------------------8--8--7--|-----------------------------7--7--6
E-|--0-----0--0--0-----0--0--0--6--6--5--|--0-----0--0--0-----0--0--0---------
           ---t---     ---t---                    ---t---     ---t---
     Lashing out  the action                Returning   the   reaction

e-|--------------------------------------|------------------------------------
B-|--------------------------------------|------------------------------------
G-|--------------------------------------|------------------------------------
D-|--4--------------------------8--8--7--|--4-----5-----5-----6---------------
A-|--6--------------------------8--8--7--|--4-----5-----5-----6---------------
E-|--------0--0--0-----0--0--0--6--6--5--|--2-----3-----3-----4---------------
           ---t---     ---t---
     Weak are ripped  and  torn   away

Lashing out the action, returning the reaction
Weak are ripped and torn away
Hipnotizing power, crushing all that cower
Battery is here to stay

With Fill 1

E5                             C5
Smashing through the boundrys, lunacy has found me
             F5 F5 F#/Eb
Cannot stop the battery

Riff 3

With Fill 1

E5                      C5
Pounding out agression, turned into obsession
             F5 F5 F#/Eb
Cannot stop the battery

Riff 3 (first 2 bars)

E5              B5      G5          F#/Eb
Cannot kill the family, battery has grounded me

Riff 3 (first 3 bars)|
                     |
Bb5 F5 E5            |          Play this several
Bat-ter-y            |      times and then back to the next verse

Outro:
        Repeat lots             Last time
e-|--------------------------|------------------------------------------------
B-|--------------------------|------------------------------------------------
G-|--3--4--3--4--3-----------|--3--4--3--4--3--4--3--4------------------------
D-|--3--4--3--4--3--4--3-----|--3--4--3--4--3--4--3--4--------4--3--3--3--3--2
A-|--1--2--1--2--1--4--3-----|--1--2--1--2--1--2--1--2--------4--3--3--3--3--2
E-|-----------------2--1-----|--------------------------------2--1--1--1--1--0

verses

Crushing all decievers, mashing non-believers
Never ending potency
Hungry violence seeker, feeding off the weaker
Breeding on insanity

Chorus

Circle of destruction, hammer comes crushing
Powerhouse of energy
Whipping up a fury, dominating flurry
We create the battery

Chorus

        I think this is pretty close. I'm not sure about the names of the
funny chords though (marked ??) I'm not too hot on theory!! :)

Corrections/Abuse :-
                        [email protected]

-------------------------------  Metallica  ----------------------------------
Master Of Puppets
-----------------

Tab symbols used:
        p  - pull off
        h  - hammer on        )              )
    / or  - slide           /  - bend      /   - bend and release
       vib - vibrato
        x  - rake

   E5               D5 Db5  C                        N.C.(Em)

                                                    PM..............
e |----------------|---------------|---------------|----------------|
B |----------------|---------------|---------------|----------------|
G |9---------------|7---6---5------|---------------|.---------------|
D |9---------------|7---6---5------|---------------|.---------------|
A |7---------------|5---4---3------|---------------|-----7-----6----|
E |0---------------|---------------|---------------|-0-0---0-0---0-0|


   D   Db  C         N.C.(Em)               Play 4 times
                     PM.............................
e |-----------------|---------------|-----------------|
B |7---6---5--------|---------------|-----------------|
G |7---6---5--------|---------------|----------------.|
D |7---6---5--------|---------------|----------------.|
A |5---4---3--------|---------------|-----------------|
E |-----------------|0-0-7-0-0-6-0-0|5-0-4-0-3-0-2-0--|

    N.C.
    PM...............................................
e |-----------------|----------------|----------------|-----------------|
B |-----------------|----------------|----------------|-----------------|
G |.----------------|----------------|----------------|----------------.|
D |.----------------|----------------|----------------|----------------.|
A |-----2-----3-----|4-----3-----2-2-|----2-----3-----|54---54---54--|
E |-0-1---0-1---0-1-|--0-1---0-1-----|0-1---0-1---1-0-|32-0-32-0-32--|

  RhyFig0
   N.C.                                                           B5
   PM.............................................................
e |-----------------|----------------|----------------|----------------|
B |-----------------|----------------|----------------|----------------|
G |.----------------|----------------|----------------|------------4---|
D |.----------------|----------------|----------------|------------4---|
A |-----2-----3-----|4-----3-----2-2-|----2-----3-----|4-----3-----2---|
E |-0-1---0-1---0-1-|--0-1---0-1-----|0-1---0-1---0-1-|--0-1---1-0-----|

    N.C.
    PM...............................................
e |----------------|----------------|----------------|-----------------|
B |----------------|----------------|----------------|-----------------|
G |----------------|----------------|----------------|----------------.|
D |----------------|----------------|----------------|----------------.|
A |----2-----3-----|4-----3-----2-2-|----2-----3-----|54---54---54--|
E |0-1---0-1---0-1-|--0-1---0-1-----|0-1---0-1---1-0-|32-0-32-0-32--|

                end
             RhyFig0                                RhyFig1
                    E5                              N.C.(Em)
                    w/ Fill 1                        PM..............
e |----------------|---------------|---------------|-----------------|
B |----------------|---------------|---------------|-----------------|
G |----------------|---------------|---------------|.----------------|
D |----------------|2--------------|---------------|.----------------|
A |54---54---54-|2--------------|---------------|-----------------|
E |32-0-32-0-32-|0--------------|---------------|-0-0-0-0-0-0-0-0-|

                                    end RhyFig1
   PM               PM.................
e |----------------|----------------|-----------|
B |----------------|----------------|-----------|
G |----------------|----------------|----------.|
D |----------------|----------------|----------.|
A |--5/7---87-5/7-|----------------|--5/7-5/7--|
E |0-3/5-0-65-3/5-|0-0-0-0-0-0-0-0-|0-3/5-3/5--|

/
   Fill 1
   PM...........................vib
e |----------------|----------------|----|
B |----------------|----------------|----|
G |----------------|----------------|----|
D |----8-----8-----|8-----8-----8===|====|
A |--7-----7-----7-|----7-----7-----|----|
E |0-----0-----0---|--0-----0-------|----|



**** 1st,2nd,3rd verses: Repeat RhyFig1 4 times, then ->

   RhyFig1A
    N.C.(F#m)
    PM.................               PM.................
e |-----------------|----------------|----------------|-----------|
B |-----------------|----------------|----------------|-----------|
G |.----------------|----------------|----------------|----------.|
D |.----------------|--4-4---54-4-4-|----------------|--4---4---.|
A |-----------------|--0-2---32-0-2-|----------------|--0h2-0h2--|
E |-2-2-2-2-2-2-2-2-|2---------------|2-2-2-2-2-2-2-2-|2----------|

        end RhyFig1A
   PM........
e |----------------|
B |----------------|
G |4-4-4-4-4-4-4-4-|
D |4-4-4-4-4-4-4-4-|
A |2-2-2-2-2-2-2-2-|
E |----------------|

                                                                      Repeat
                                                                  3.75 times
    E5      D5  E5                              C5   B5          D#5  B5
    PM......         PM.......   vib    PM......          PM......
e |-----------------|------------------|-----------------|-----------------|
B |-----------------|------------------|-----------------|-----------------|
G |.9-------7---9---|------------------|-----------------|--------8-------.|
D |.9-------7---9---|----9-------------|--------10---9---|--------8---9---.|
A |-7-------5---7---|7-9---10-9h10=====|--------10---9---|--------6---9----|
E |-0-0-0-0---------|------------------|8-8-8-8-8----7---|8-8-8-8-----7----|

   N.C.(B)          E5               F                E5
   2 gtrs........                                                 PM..
e |----------------|----------------|----------------|----------------|
B |----------------|----------------|----------------|----------------|
G |----------------|4---4-----------|2---2-----------|4---------------|
D |7-5-4---4-------|2---2-----------|3---3-----------|2---------------|
A |9-7-6---6-7-6---|2---2-----------|3---3-----------|2---------------|
E |----------8-7---|0---0-----------|1---1-----------|0---------0-0-0-|

            G                                 C5               B5
       PM..                                             PM....   PM....
e |--------|----------------|----------------|----------------|--------|
B |--------|0---------------|----------------|----------------|--------|
G |--------|0---------------|----------------|5---------------|--------|
D |--------|0---------------|----------------|5---------------|4-------|
A |--------|----------------|----------------|3---------0-0-0-|2-0-0-0-|
E |2p0-0-0-|3---------------|----------------|----------------|--------|

   A5                              D                C5       B
                                             PM....   PM....
e |---------------|---------------|2---------------|--------|---------------|
B |---------------|---------------|3---------------|--------|4--------------|
G |2--------------|---------------|2---------------|--------|4--------------|
D |2--------------|---------------|0---------------|5-------|4--------------|
A |0--------------|---------------|----------------|3-------|2--------------|
E |---------------|---------------|----------3-3-3-|--3-3-3-|---------------|

   E5               D5       C                         E5
             PM....     PM..
e |----------------|--------|----------------|--------|----------------|
B |----------------|--------|5---------------|--------|----------------|
G |9---------------|7-------|5---------------|--------|4---4-----------|
D |9---------------|7-------|5---------------|--------|2---2-----------|
A |7---------------|5-------|3---------------|--------|2---2-----------|
E |0---------0-0-0-|----0-0-|----------------|--------|0---0-----------|

   F                E5                        C
                              PM.............




e |----------------|----------------|--------|----------------|
B |----------------|----------------|--------|5---------------|
G |2---2-----------|4---------------|--------|5---------------|
D |3---3-----------|2---------------|--------|5---------------|
A |3---3-----------|2---------------|--------|3---------------|
E |1---1-----------|0---------0-0-0-|2p0-0-0-|----------------|

   (C)              E5               F

e |----------------|----------------|----------------|
B |(5)-------------|----------------|----------------|
G |(5)-------------|4---4-----------|2---2-----------|
D |(5)-------------|2---2-----------|3---3-----------|
A |(3)-------------|2---2-----------|3---3-----------|
E |----------------|0---0-----------|1---1-----------|

After verse 1, play RhyFig0, then go back and play verse 2
After verse 2, pause for vocal (Master, Master...), then go to Coda 1
After verse 3, go to Coda 2

Coda 1:

  RhyFig2
   Em       D                   Cadd9              Amsus2   B7
                     /3
e |--------|--------0h2p0----3-|------------------|-----------------|
B |--------|----3--------3-----|------3---3-----0-|(0)--0-------0---|
G |------0-|--2---2--------2p0-|(0)-0---0---0-----|---2-------2-----|
D |----2---|0------------------|--------------2---|-----------------|
A |--2-----|-------------------|-3----------------|-0-----0-2-----2-|
E |0-------|-------------------|------------------|-----------------|

          end
      RhyFig2 w/RhyFig2    (0vol<<< = volume swell from vol off)
  B7/D#       Em
              0vol<<<< 0vol<<<<<<<<<< 0vol<<<<<<<<<< 0vol<< 0vol<<< 0vol<<<<
e |---------||--------|--------------|--------------|--------------|--------|
B |(0)--0---||--------|--------------|--------------|--------------|--------|
G |---2-----||--------|--------------|--------------|2------4------|8-------|
D |-1-------||2-------|4-------------|5-------------|--------------|--------|
A |---------||--------|--------------|--------------|--------------|--------|
E |-------3-||--------|--------------|--------------|--------------|--------|

  Rhyfig2a
   w/ RhyFig2 2 times
    Em                     D
   2gtrs
e |-----19/22--19--------|20---17-------------------20---17--------|
B |-20---------20---20---|22---19---19---19-19-19---22---19---19---|
G |-21--------------21---|----------19---19-19-19-------------19---|
D |----------------------|-----------------------------------------|
A |----------------------|-----------------------------------------|
E |----------------------|-----------------------------------------|

  Cadd9                                     Amsus2

e |19---15-------------------19---15--------|17---15h17p15-14--------|
B |20---17---17---17-17-17---20---17---17---|19---17h19p17-16---17---|
G |----------17---17-17-17-------------17---|-------------------17---|
D |-----------------------------------------|------------------------|
A |-----------------------------------------|------------------------|
E |-----------------------------------------|------------------------|

                                           end
   B7                  B7/D#            RhyFig2a

e |----------14--------|14---16---17---19----|
B |16---17--------17---|16---17---19---20----|
G |16---17--/19---17---|---------------------|
D |--------------------|---------------------|
A |--------------------|---------------------|
E |--------------------|---------------------|

Repeat RhyFig2a


   w/ RhyFig2 2 times & Fill 1                                full full
   Em               D                     /----3----  Cadd9    )  )
                    vib         /--3--  /     /--3-- vib     /  /  
e |----------------|15------15-17-15----19-15-12h15p12|----------------|
B |17---------17-19|------19---------19---------------|13-----15-------|
G |----------------|----------------------------------|----------------|
D |----------------|----------------------------------|----------------|
A |----------------|----------------------------------|----------------|
E |----------------|----------------------------------|----------------|

                                              all full bends of G string only
   Amsus2                 B7            B7/D#                Em
                                           )  )  )
                          vib             / / /           vib
e |15-14------15-14---------------------|-------------------|-------------|
B |------12---------12h15p12------------|15-----------------|-------------|
G |-------------------------------12-14-|14-------p12----12-|-------------|
D |-------------------------------------|-------------14----|14--------12-|
A |-------------------------------------|-------------------|-------------|
E |-------------------------------------|-------------------|-------------|

   D                                          Cadd9
                                      /--3-- vib
e |------------------------------------------|------------------------------|
B |------------------------------------------|------------------------------|
G |12----14-12---11--------14---12---11h12p11|------------------------------|
D |-------------------12---------------------|10------------9-10--------9-10|
A |------------------------------------------|-----------12-----------------|
E |------------------------------------------|------------------------------|

  Amsus2                   B7                 B7/D#
    /---3---   /---3---                       /--3--
e |----------------------------------15---14--|11h12p11-----------/19--|
B |------------------------12-----------------|---------12---10--------|
G |----------------11--12-------12------------|------------------------|
D |12--10--12--14-----------------------------|------------------------|
A |-------------------------------------------|------------------------|
E |-------------------------------------------|------------------------|

/
   Fill 2                 Fill 3                 Fill 4
                          vib
e |15------------|     e |--------------|     e |15-----------|-14---------|
B |17------------|     B |17------------|     B |17-----------|(17)--------|
G |--------------|     G |--------------|     G |-------------|------------|
D |--------------|     D |--------------|     D |-------------|------------|
A |--------------|     A |--------------|     A |-------------|------------|
E |--------------|     E |--------------|     E |-------------|------------|



Play RhyFig2a twice, with Fill 3 first time

Play RhyFig2 twice, with distortion, and
                    chord progression: E5,D5,C5,A5,B5,D#5
                                                                    end
                                    RhyFig3                       RhyFig3
   E5                               F#5 G5 F#5   G5   F#5 G5 F#5  G5 C#5
   PM.........................       PM................................
e |----------------|----------------|-----------------|----------------|
B |----------------|----------------|-----------------|----------------|
G |4-4-4-4-4-4-4-4-|4-4-4-4-4-4-4-4-|-----------------|----------------|
D |2-2-2-2-2-2-2-2-|2-2-2-2-2-2-2-2-|-----------------|--------------6-|
A |2-2-2-2-2-2-2-2-|2-2-2-2-2-2-2-2-|4-4-5-4-4-4-5-4-4|4-4-5-4-4-4-5-4-|
E |0-0-0-0-0-0-0-0-|0-0-0-0-0-0-0-0-|2-2-3-2-2-2-3----|2-2-3-2-2-2-3---|

Repeat RhyFig3 once alone, then 4 times with vocals.

   G                                 F3               pick
                                                      slide    slide
e |----------------|----------------|----------------|----------------|
B |----------------|----------------|----------------|----------------|
G |4---------------|(4)-------------|3---------------|----------------|
D |5---------------|(5)-------------|4---------------|----------------|
A |5---------------|(5)-------------|4---------------|----------------|
E |3---------------|(3)-------------|2---------------|X\\\-17\\-|

  w/ RhyFig1 4 times
   N.C. (Em)
    /--3--  /--3--  /--3--  /--3--   /--3--  /--3--  /--3--  /--3--
e |17p12----------12-17p12----------12-|17p12----------12-15p12----------12-|
B |------13-12-13----------13-12-13----|------13-12-13----------13-12-13----|
G |------------------------------------|------------------------------------|
D |------------------------------------|------------------------------------|
A |------------------------------------|------------------------------------|
E |------------------------------------|------------------------------------|

    /--3--  /--3--  /--3--  /--3--   /--3--
e |17p12----------12-17p12----------12-|17p12-------12-12-15p12----|
B |------13-13-12----------13-12-13----|------13-12-------------13-|
G |------------------------------------|---------------------------|
D |------------------------------------|---------------------------|
A |------------------------------------|---------------------------|
E |------------------------------------|---------------------------|

     /--3--              /--3--               /--3--
e |----19-19-17-17-17-17-15-15-15-14-14-14-14-|17-17-17-15-15-15-14-|
B |/17----------------------------------------|---------------------|
G |-------------------------------------------|---------------------|
D |-------------------------------------------|---------------------|
A |-------------------------------------------|---------------------|
E |-------------------------------------------|---------------------|

                             f u l l
                             )  )  )
                            / / /   /--3--             /--3--    sl
e |14-14-14-14------------|-------------------17h19\---|-----------------|
B |------------15---15-17-|17--------17p15p14-------\17|15p14------------|
G |-----------------------|-----------------------------|------16-14\\--|
D |-----------------------|-----------------------------|-----------------|
A |-----------------------|-----------------------------|-----------------|
E |-----------------------|-----------------------------|-----------------|

      trem bar
                      /-1-    /---2---
             /     /       /              /     /
   *       3/  1.5/       /           1.5/  1.5/  1.5
e |X--------------------------|------------------------------------|
B |---------------------------|------------------------------------|
G |---------------------------|------------------------------2--4--|
D |---------------------------|------------------------------------|
A |---------------------------|------------------------------------|
E |---------------------------|------------------------------------|

   * This note produced by pulling string off edge of fretboard and
     "fretting" it against pickup.

  full
    )
   /         gr                vib
e |------------------------|--------------|--------------------------------|
B |------------------------|--------------|/15--13--12------13--12------12-|
G |2--4--3--2-0h2----------|--------------|-------------14----------14-----|
D |----------------4--2----|2-h4----------|--------------------------------|
A |---------------------(2)|--------------|--------------------------------|
E |------------------------|--------------|--------------------------------|

                            /--3--
e |---------------------------------|------------------------|
B |------------12----12-12-12-12-12-|12-15-13-12-15-13-12-13-|
G |11--12--14-----------------------|------------------------|
D |---------------------------------|------------------------|
A |---------------------------------|------------------------|
E |---------------------------------|------------------------|

                     gr
e |12----------12-------------|14-------14-------15-15-------|
B |---15-15-13----15-13h15-15-|---17-15----15-17-------17/19-|
G |---------------------------|------------------------------|
D |---------------------------|------------------------------|
A |---------------------------|------------------------------|
E |---------------------------|------------------------------|

  w/ RhyFig1A
   N.C. (F#m)
                /--3--
e |17-------19-17-------17----------19-17-------|17----------19-17-------|
B |---20-19-------19-19----21-19-19-------19-19-|---21-19-19-------19-19-|
G |---------------------------------------------|------------------------|
D |---------------------------------------------|------------------------|
A |---------------------------------------------|------------------------|
E |---------------------------------------------|------------------------|

   all bends in next 2 ---> full    full    full     1.5
measures on B string only     )       )       )       )
                             /       /       /       /
e |17----------19-17-------|14--14------14--------------14--|
B |---21-19-19-------19-19-|17------17------17-(17)17------|
G |------------------------|--------------------------------|
D |------------------------|--------------------------------|
A |------------------------|--------------------------------|
E |------------------------|--------------------------------|

           half        full
             )           )      full    full    full          full
            /           /         )       )       )             )
    /---3--    /---3--         /       /       /   /--3--   /
e |19-p14------19-p14--14------|----14------14------14-14-14------14-14-|
B |--------17----------17------|17------17------17------------17--------|
G |----------------------------|----------------------------------------|
D |----------------------------|----------------------------------------|
A |----------------------------|----------------------------------------|
E |----------------------------|----------------------------------------|

   full    full    full    full     full    full    full    full
     )       )       )       )        )       )       )       )
    /       /       /       /        /       /       /       /
e |----15------15------15------15--|----17------17------18------18--|
B |18------18------18------18------|20------20------21------21------|
G |--------------------------------|--------------------------------|
D |--------------------------------|--------------------------------|
A |--------------------------------|--------------------------------|
E |--------------------------------|--------------------------------|

   full      2      1.5  trem bar          depress & vibrate
     )       )       )                     bar simultaneously
    /       /       /     ////////
e |----19------19--22--|(22)--------------//--------------|
B |22------22----------|-----------------------//---------|
G |--------------------|----------------------------//----|
D |--------------------|---------------------------------/-|
A |--------------------|-------------------------------------|
E |--------------------|-------------------------------------|

    N.C.                                                           B5
    PM...........................     PM...........................
e |-----------------|----------------|----------------|-----------------|
B |-----------------|----------------|----------------|-----------------|
G |.----------------|----------------|----------------|----------------.|
D |.----3-----3-----|3-----3---------|----3-----3-----|3-----3-----4---.|
A |-----3-----3-----|3-----3-----2-2-|----3-----3-----|3-----3-----2----|
E |-0-0-1-0-0-1-0-0-|1-0-0-1-0-0-----|0-0-1-0-0-1-0-0-|1-0-0-1-0-0------|

   E5                N.C.
   PM..............  PM...................         PM..................
e |----------------|-----------------|----------------|----------------|
B |----------------|-----------------|----------------|----------------|
G |----------------|.----------------|----------------|----------------|
D |----------------|.--------------2-|4-5-------------|----------------|
A |2-2-2-2-2-2-2-2-|---------2-3-5---|----3--------3-3|3-2-3-5-3-2-----|
E |0-0-0-0-0-0-0-0-|-0-2-3-5---------|----------------|------------3-2-|

                                2 gtrs
   PM..............  PM.....................         PM..................




e |-----------------|------------------|----------------|----------------|
B |-----------------|------------------|----------------|----------------|
G |----------------.|------------------|2-4-------------|----------------|
D |----------------.|------------4-2/5-|4-5-2--------2-2|2-0-2-4-2-0-----|
A |-----------------|--------2-3-5-----|----3--------3-3|3-2-3-5-3-2-3-2-|
E |0-0-0-0-0-0-0-00-|0-2-3-5-----------|----------------|------------3-2-|

                                           C
   PM......................................         PM..................
e |----------------|------------------|----------------|----------------|
B |----------------|------------------|----5-----------|----------------|
G |----------------|------------------|2-4-5-----------|----------------|
D |----------------|------------4-2/5-|4-5-5-----------|----------------|
A |----------------|--------2-3-5-----|----3--------3-3|3-2-3-5-3-2-----|
E |0-0-0-0-0-0-0-00|0-2-3-5-----------|----------------|------------3-2-|

   E5

e |----------------|----------------|
B |----------------|----------------|   Go back
G |4---------------|------2---------|   and play
D |2------------5-5|5-4-5---5-4-2-4-|   verse 3
A |2------------3-3|3-2-3-5-3-2-----|
E |0---------------|------------3-2-|

Coda 2:

Play RhyFig1 4 times
                                     E5
                                     w/ Laughter.....
e |----------------|----------------|----------------|
B |Ha!-Ha!-Ha!-Ha!-|----------------|----------------|
G |----------------|----------------|4---------------|
D |----------------|----------------|2---------------|
A |----------------|54---54---54-|2---------------|
E |----------------|32-0-32-0-32-|0---------------|

-------------------------------  Metallica  ----------------------------------
The Thing That Should Not Be
----------------------------

   Riff 1:        Riff 2:
E-|-------------|-------------------------|
B-|-------------|-------------------------|
G-|.-----------.|.-----------------------.|
D-|.-----------.|.-----------------------.|
A-|--0--2-------|--0--2----1-----2-----3--|
E-|--0--2-------|--0--2--------2-----2----|

      Riff 3:               (x 4)  Riff 4:
E---|----------------------------|--------------------------------|
B---|----------------------------|--------------------------------|
G---|.-------3-----4-----5------.|.-------3------4------5--------.|
D---|.-------3-----4-----5------.|.-------3------4------5--------.|
A-0-|--0-1-2-1-----2-----3----0--|--0-1-2-1------2------3------0--|
E-0-|--0-1-2-----2-----2------0--|--0-1-2----1-2----1-2----1-2-0--|

 Riff 5:
E---------------------------------------------------------------------
B---------------------------------------------------------------------
G--5-------5---5---1-------1---1---2-------2---2----------------------
D--5-------5---5---1-------1---1---2-------2---2----4-----------------
A----7-7-7---7-------3-3-3---3-------4-4-4---4------4-1-1-1-1-1-1-1-1-
E----7-7-7---7-------3-3-3---3-------4-4-4---4--------1-1-1-1-1-1-1-1-

Verse
=====

 Riff 6: (x 2)
E----------------------------------------
B----------------------------------------
G----------------------------------------
D--2--0-----------------------------(0)-- ...let ring
A--2--0-----------------------------(0)--
E--2--0-----------------------------(0)--

Riff 1, Riff 2, Riff 3 (x 2)
Riff 1, Riff 2, Riff 3

Chorus
======

Riff 5 (x 2)

 Riff 7:
E|-------------------------------------------------|-----------------|
B|-------------------------------------------------|-----------------|
G|.-2---3-----6---6---------------------------6---.|-2---3-------2---|
D|.-2---3-----6---6---------------------------6---.|-2---3---1---2---|
A|--0---1---5-6-5-6-0-0-0-0-0-0-0-0-0-0-0-0-5-6-5--|-0---1---1---0---|
E|----------5-6-5-6-0-0-0-0-0-0-0-0-0-0-0-0-5-6-5--|---------1-------|

Riff 3 (x 2)
Riff 4 (x 2)
Verse
Chorus

  Riff 8: (x 4)
E-----------------------------------|
B-----------------------------------|
G----6---6--------------------------|
D----6---6--------------------------|
A--5-6-5-6-0-0-0-0-0-0-0-0-0-0-0-0--|
E--5-6-5-6-0-0-0-0-0-0-0-0-0-0-0-0--|

              Riff 9:
E-----------|----------------------------------------|
B-----------|----------------------------------------|
G----6---6--|----------------------------------------|
D----6---6--|----------------------------------------|
A--5-6-5-6--|----------------------------------------|
E--5-6-5-6--|----------------------------------------|

E----------|--------------|------------------
B----------|--------------|------------------
G--2---3---|--------------|--2---3-------2---
D--2---3---|--( Riff 9 )--|--2---3---1---2---
A--0---1---|--------------|--0---1---1---0---
E----------|--------------|----------1-------

Riff 4 (x 4)
Verse
Chorus
Riff 9, Riff 8 (x 10)

-------------------------------  Metallica  ----------------------------------
Welcome Home (Sanitarium)
-------------------------
Tabbed by Vassilis Tzerpos

Legend:
<> = Natural Harmonics         s = slide
~ = Cue notes                  p = pull-off
__3__ = Triads                 h = hammer-on
^ = bend                       r = release bend
x = dumped string              % = pick continuously and rapidly
/ = slide up to the note indicated from a few frets below
 = slide back a few frets from the note indicated
+ = rapid hammer and pull e.g. 8 = 8 h 10 p 8
                                    +

The song is in exact timing.
Intro, chorus and rhythm figures 8th = ---- (except else indicated).
Solos 8th = -------- (except solo 1)
Blank columns do not count in timing. They are just used to separate
adjacent fret numbers.

                        _3_




-------<12>---------3---353-2---|-------<12>---------2---2-----3-|
-----------<12>-----------------|-----------<12>---------0-------|
--------------------------------|--------------------------------|
--------------------------------|--------------------------------|
--------------------------------|--------------------------------|
0-------------------------------|0-------------------------------|

0------<12>---------------------|-------<12>---------------------|
-----------<12>-----------------|-----------<12>-----------------|
--------------------------------|--------------------------------|
--------------------------------|--------------------------------|
--------------------------------|--------------------------------|
0-------------------------------|0-------------------------------|

-------<12>---------------------|-------<12>---------------------|
-----------<12>-----------------|-----------<12>-----------------|
--------------------------------|---------------<12>-------------|
--------------------------------|--------------------------------|
--------------------------------|--------------------------------|
0-------------------------------|0-------------------------------|

Rhy. Fig. 1 (8th=--)
----------------|----------------|--------|   Repeat this figure 4 times
----------------|----------------|--------|   alone, then 4 times under
------0-------0-|------0---------|--------|   the solo and 6 times under
----4-------5---|----7-------0---|--0-----|   the verse. The notes with
--2-------3-----|--5-------4-----|2-----0-|   a ~ under them are cue notes.
0-------0-------|0-------5---5s3-|--3s5---|   They hardly take time to sound
                             ~      ~

Now comes solo 1. Timing isn't always exact but is close.

------------------------------|--------10-s12--15-s17--17----|----------------|
------------------------------|10-s12------------------------|----------------|
--------11--12--9---------12--|------------------------------|----------------|
----9-------------------------|------------------------------|----------------|
7-----------------------------|------------------------------|----------------|
------------------------------|------------------------------|----------------|

--15--15--12--12s14---12^-r---|---12---------------__3___----|----------------|
------------------------------|15-----15--13--13---121312----|----------------|
------------------------------|--------------------------14--|12-s11----------|
------------------------------|------------------------------|--------12------|
------------------------------|------------------------------|------------14--|
------------------------------|------------------------------|----------------|

------------------------------|----19-----19-------------17--|171514----------|
------------------------------|--17---------17---------------|------171514----|
12s14-------------------------|16-------------16-s14-14------|------------1614|
------------------------------|------------------------------|----------------|
------------------------------|------------------------------|----------------|
------------------------------|------------------------------|----------------|

                               __3___
----------------------------12|101210----------------5-------|----3-----------|
--------------------------13--|------13--12------------------|----------------|
12^-----r---------------14----|------------------6-----------|4-----------6---|
----------------------14------|-------------/7----------/5---|-------/7-------|
------------------------------|------------------------------|----------------|
------------------------------|------------------------------|----------------|

Verses:  (with Rhy. Fig. 1)
1. Welcome to where time stands still, noone lives and noone will
Moon is full never seems to change, just labeled mentally deranged
Dream the sane thing every night, I see our freedom in my sight
No locked doors, no windows barred , no things to make my brain seem scared

2. Build my fear of what's out there, cannot breath the open air
Whisper things into my brain, assuring me that I'm insane
They think our heads are in their hands, but violent use brings violent plans
Keep him tied, it makes him well, he's getting better can't you tell?

1.Sleep my friend and you will see that dream is my reality
2.No more can they keep us in, listen damn it we will win


----------------|----------------|--------|
----------------|----------------|--------|
----------------|----------------|--------| 8th=--
----------------|----------------|--------|
----2-2-----3-3-|----5-5---------|--------|
0-0-----0-0-----|0-0-----5-5-5-3-|3-3-5-3-|

1.Keep me locked up in this cage, can't they see it's why my brain says rage?
2.They see it right, they see it well, but they think this saves from our hell
----------------|----------------|--------|
----------------|----------------|--------|
----------------|----------------|--------|8th=--
----------------|----------------|--------|
----2-2-----3-3-|----5-5---------|--------|
0-0-----0-0-----|0-0-----5-5-5-3-|3-3-5-3-|

CHORUS
                                                 Sa   -    ni   -
--------------------------------|--------------------------------|
--------------------------------|--------------------------------|
--------------------5s4-----5s4-|----------------_3_-------------|
------------5s4-----5s4-----5s4-|----------------020-------------|
------------5s4-----3s2-----3s2-|--------------------3-2---------|
0-------x-x-3s2-x-x-----x-x-----|------------------------5-3-2-3-|

tarium                                           leave   me
--------------------------------|--------------------------------|
--------------------------------|--------------------------------|
--------------------5s4-----5s4-|--------------------------------|
------------5s4-----5s4-----5s4-|--------------------------------|
------------5s4-----3s2-----3s2-|----2-2-2-2-2-2-3-2-------x-3---|
0-------x-x-3s2-x-x-----x-x-----|--------------------3-----x-1---|

be                                               Sa   -   ni    -
--------------------------------|--------------------------------|
--------------------------------|--------------------------------|
--------------------5s4-----5s4-|----------------_3_-------------|
------------5s4-----5s4-----5s4-|----------------020-------------|
------------5s4-----3s2-----3s2-|--------------------3-2---------|
0-------x-x-3s2-x-x-----x-x-----|------------------------5-3-2-3-|

tarium                                  just leave me alone
--------------------------------|--------------------------------| 1st time
--------------------------------|--------------------------------| go on with
--------------------5s4-----5---|4-------------------------------| the solo
------------5s4-----5s4-----5---|4-------------------------------| 2nd time
------------5s4-----3s2-----3---|2-------------------------------| skip to
0-------x-x-3s2-x-x-----x-x-----|--------------------------------| CODA

Now comes the second solo. The backing guitar plays a B chord for
the next line and then goes on 4 times with the backing rhythm
of solo 1.

 ----------------------------------------------------------------|
 --------------------------------------------------------10------|
 ----------------------------------------7---7---9--s11----------|
 ------------------------7---7--s9-------------------------------|
 --------5---5---7--s9-------------------------------------------|
/7---------------------------------------------------------------|

For the next two lines we have two guitars soloing together.
For two notes they play on the same string (high E). In this
case the highest note is indicated above the tablature.

                22      22
--------15--17--19------19------19------------------------------|
17--19--------------------------17------------------------------|
----------------------------------------------------------------|
----------------------------------------------------------------|
----------------------------------------------------------------|
----------------------------------------------------------------|





17-h19-p17------15------17-h19--17--------------17--19p17 17------|
19-h20-p19------17------19-h20--19------19------19--20p19 17------|
----------------------------------------19------------ -- --------|
------------------------------------------------------ -- --------|
------------------------------------------------------ -- --------|
------------------------------------------------------ -- --------|

15------------------------------|
--------------------------------|
16------------------------------|
--------------------------------|
--------------------------------|
--------------------------------|

14^---------------------r-------------------------------14--15--|
15^---------------------r-------15------------------------------|
----------------------------------------------------------------|
----------------------------------------------------------------|
----------------------------------------------------------------|
----------------------------------------------------------------|
                ___3____
17--15--14--15--14h15p14  ----14---------------- -- --------------------|
--------------------      17------17--17--14--15p14 16--14--------------|
--------------------      ---------------------- -- --------16--14-s12--|
--------------------      ---------------------- -- --------------------|
--------------------      ---------------------- -- --------------------|
--------------------      ---------------------- -- --------------------|

--------------------------------|
--------------------------------|
14-p12------12------------------|
--------16------16--14--12------|
----------------------------16--|
--------------------------------|

--------------------------------------------------------17------|
------------------------------------------------17-s15------15-s|
----------------------------------------------------------------|
12-h14----------------------------------------------------------|
----------------------------------------------------------------|
----------------------------------------------------------------|

----15----------14----------12----------10----------7-----------|
14------14-s12------12-s10------10-s8-------8-s-7-------7-------|
------------------------------------------------------------7---|
----------------------------------------------------------------|
----------------------------------------------------------------|
----------------------------------------------------------------|

--------------------------------|
--------------------------------|
----7---9-----9s11------9-------|
9-------------~-----------------|
--------------------------------|
--------------------------------|

----------------------------------------------------------------|
----------------------------------------------------------------|
9---------------------------------------9---9---9-------9-------|
----------------------------------------------------------------|
----------------------------------------------------------------|
----------------------------------------------------------------|

------------------------------------------------5---------------|
----------------------------------------------------------------|
9-------7-------------------------------6-----------------------|
----------------5--------------/7----------------------/5-------|
----------------------------------------------------------------|
----------------------------------------------------------------|

--------3-----------------------|
--------------------------------|
4-----------------------6-------| Now go back and play verse 2.
---------------/7---------------|
--------------------------------|
--------------------------------|

CODA

----------------|--------------------------------|
----------------|--------------------------------|
_3_-------------|--------------------5s4-----5---|
020-------------|------------5s4-----5s4-----5---|
----3-2---------|------------5s4-----3s2-----3---|
--------5-3-2-3-|0-------x-x-3s2-x-x-----x-x-----|

--------------------------------|----------------|----------
--------------------------------|----------------|----------
4-------------------------------|_3_-------------|----------
4-------------------------------|020-------------|2---------
2-------------------------------|----3-2---------|2---------
--------------------------------|--------5-3-2-3-|0---------

This last E chord lasts rather long for Metallica, while the song
doubles its tempo and the lyrics go "Just leave me alone".
Then you make a pick slide down the neck and you go:

----------------|----------------|----------------|----------------|
----------------|----------------|----------------|----------------|
----------------|----------------|----------------|----------------|
----------------|----------------|----------------|----------------|
----------------|----------------|----------------|----------------|
0-0-0-0-0-0-0-0-|0-0-0-0-0-0-0-0-|0-0-0-0-0-0-0-0-|0-0-0-0-0-0-0-0-|

----------------|----------------|----------------|----------------|
----------------|----------------|----------------|----------------|
----------------|----------------|----------------|----------------|
0h2---0h2-------|----------------|0h1---0h1---0h1-|--0h2-----------|
0h2---0h2-------|----------------|0h1---0h1---0h1-|--0h2-----------|
----------0-0-0-|0-0-0-0-0-0-0-0-|----------------|------0-0-0-0-0-|

Rhy. Fig. 2                                         (end Rhy.Fig. 2)
----------------|----------------|----------------|----------------|
----------------|----------------|----------------|----------------| Repeat
----------------|----------------|----------------|----------------| this
0h1---0h1-------|----------------|0h1---0h1---0h1-|--0h2-----------| line
0h1---0h1-------|----------------|0h1---0h1---0h1-|--0h2-----------| 3 times
----------0-0-0-|0-0-0-0-0-0-0-0-|----------------|------0-0-0-0-0-|

             Fear of living on               Natives getting rest-
--------------------------------|--------------------------------|
--------------------------------|--------------------------------|
--------------------------------|------7-7-----------------------|
0-2---2-2-----------------------|0-2---7-7-----------------------|
0-2---2-2-----------------------|0-2---5-5-----------------------|
------0-0-----------------------|--------------------------------|

less now       mutiny in the air              got some death to do
--------------------------------|--------------------------------|
--------------------------------|--------------------------------|
--------------------------------|------5-5-------------4-4-------|
0-2---3-3-----------------------|0-2---5-5-------5-4---4-4-------|
0-2---3-3-----------------------|0-2---3-3-------3-2---2-2-------|
------1-1-----------------------|--------------------------------|

         Mirror stares back hard        "Kill" it's such a friend-
--------------------------------|--------------------------------|
--------------------------------|--------------------------------|
--------------------------------|------7-7-----------------------|
0-2---2-2-----------------------|0-2---7-7-----------------------|
0-2---2-2-----------------------|0-2---5-5-----------------------|
------0-0-----------------------|--------------------------------|

ly word       Seems the only way            for reaching out again
--------------------------------|--------------------------------|
--------------------------------|--------------------------------|
--------------------------------|------5-5-------------4-4-------|
0-2---3-3-----------------------|0-2---5-5-------5-4---4-4-------|
0-2---3-3-----------------------|0-2---3-3-------3-2---2-2-------|
------1-1-----------------------|--------------------------------|


--------------------------------|
--------------------------------|
--------------------------------|
--------------------------------|
--------------------------------|
0-0-0-0-0-0-0-0-0-0-0-0-12-----|

Now we have another solo played over Rhy. Fig. 2 (4 times)

----------------------------------------------------------------|
----------------------------------------------------------------|
12--12--12--12--12--12--12--12--12--12--12--12--12--12--12--12--|
----------------------------------------------------------------|
----------------------------------------------------------------|
----------------------------------------------------------------|

----------------------------------------------------------------|
----------------------------------------------------------------|
16--12--12--12--12--12--12--12--12--12--12--12--12--12--12--12--|
----------------------------------------------------------------|
----------------------------------------------------------------|
----------------------------------------------------------------|

------------------------------------------------------------12--|
--------------------------------13--12--12--12--15--12--12------|
14--12--12--12--16--12--12--12----------------------------------|
----------------------------------------------------------------|
----------------------------------------------------------------|
----------------------------------------------------------------|

                ______3_______
13--12--12--12--15----12----12--17---------------------12------|
-----------------------------------------------/12--------------|
----------------------------------------------------------------|
----------------------------------------------------------------|
----------------------------------------------------------------|
----------------------------------------------------------------|

17-p15-p12--------------12------17-p15-p12----------------------|
----------------17-p15--------------------------17-p15-p12------|
----------------------------------------------------------------|
----------------------------------------------------------------|
----------------------------------------------------------------|
----------------------------------------------------------------|

17-p15-p12--------------12------17-p15-p12--------------12------|
----------------17-p15--------------------------15-p12----------|
----------------------------------------------------------------|
----------------------------------------------------------------|
----------------------------------------------------------------|
----------------------------------------------------------------|

                                                ______3_______
17^---------------------r-------^---------------------17----15--|
------------------------------------------------17--------------|
----------------------------------------------------------------|
----------------------------------------------------------------|
----------------------------------------------------------------|
----------------------------------------------------------------|

14--------------14----------------------------------------------|
--------15--------------15--------------------------------------|
------------------------------------------------2---------------|
--------------------------------------------------------4-------|
----------------------------------------------------------------|
----------------------------------------------------------------|

----------------------------------------------------------------|
----------------------------------------------------------------|
----------------4-------2---------------2-------4---2-----------|
4^------------------------------4-----------------------4-------|
----------------------------------------------------------------|
----------------------------------------------------------------|



----------------------------------------------------------------|
----------------------------------------------------------------|
--------------------------------------------------------4-------|
3-------2---------------2^--------------------------------------|
----------------5-----------------------------------------------|
----------------------------------------------------------------|

----------------------------------------------------------------|
----------------5-----------------------5---------------5-------|
7^----------------------7^----------------------7^--------------|
----------------------------------------------------------------|
----------------------------------------------------------------|
----------------------------------------------------------------|

----------------------------------------------------------------|
--------5---------------5-------------------------------12------|
7^--------------7^--------------7--------------14--------------|
----------------------------------------------------------------|
----------------------------------------------------------------|
----------------------------------------------------------------|

____________3__________         ___________3___________
--------------------------------15^--------15--------14---------|
15^--------15--------12-----------------------------------------|
----------------------------------------------------------------|
----------------------------------------------------------------|
----------------------------------------------------------------|
----------------------------------------------------------------|

____________3__________
12-------------------12-----------------------------------------|
-----------15-------------------15^---------------------17--17--|
----------------------------------------------------------------|
----------------------------------------------------------------|
----------------------------------------------------------------|
----------------------------------------------------------------|

15----------15--17--15------15--19--17-(15)--s--21------19--22--|
----17--18--------------19--------------------------------------|
----------------------------------------------------------------|
----------------------------------------------------------------|
----------------------------------------------------------------|
----------------------------------------------------------------|

22--19------22--22^-------------22^-----------------------------|
--------x-------------------------------------------------------|
-------------------------------------------End of solo 3--------|
----------------------------------------------------------------|
----------------------------------------------------------------|
----------------------------------------------------------------|

--------------------------------|--------------------------------|
--------------------------------|--------------------------------|
--------------------R-----------|------7-7-------7---R-----------|
0-2---2-2-------2---E-----------|0-2---7-7-------7---E-----------|
0-2---2-2-------2---S-----------|0-2---5-5-------5---S-----------|
------0-0-------0---T-----------|--------------------T-----------|

For the next part of the song there are 4 guitars playing from time
to time. We are going to use the following:

Rhy. Fig. 3
--------------------------------|--------------------------------|
--------------------------------|--------------------------------|
--------------------------------|------7-7-----------------------|
0-2---2-2-----------------------|0-2---7-7-----------------------|
0-2---2-2-----------------------|0-2---5-5-----------------------|
------0-0-----------------------|--------------------------------|

                                                 (end Rhy. Fig. 3)
--------------------------------|--------------------------------|
--------------------------------|--------------------------------|
--------------------------------|------5-5-------------4-4-------|
0-2---3-3-----------------------|0-2---5-5-------5-4---4-4-------|
0-2---3-3-----------------------|0-2---3-3-------3-2---2-2-------|
------1-1-----------------------|--------------------------------|

Riff 1
--------------------------------|--------------------------------|
--------------------------------|--------------------------------|
--------------------------------|2---------------2-2-2-----2-----|
(5)-------------5-5-5-4---5-----|----------------------5---------|
(7)-------------7-7-7-6---7-----|9---------------9-9-9-7---9-----|
--------------------------------|--------------------------------|

                                                      (end Riff 1)
--------------------------------|--------------------------------|
--------------------------+-----|--------------------------------|
----4-5---------5-5-5-7---5-----|--------------------------4-----|
5-----------------------------5-|----------------4-4-4-5-------5-|
10--9-8---------8-8-8-10--8---7-|----------------6-6-6-7---9---7-|
--------------------------+-----|--------------------------------|

Until th


Que te parecio? Calificalo con estrellas!!

Rating: 7.4/10 (120 votos)

Este fichero es trabajo propio de su transcriptor y representa su interpretación personal de la canción. El material contenido en esta página es para exclusivo uso privado, por lo que se prohibe su reproducción o retransmisión, así como su uso para fines comerciales.


Deja tus comentarios:

Letras de METALLICA
Letras de canciones | Musica Independiente