Acordes y tablaturas para guitarra

Acordes y Tablaturas
Usuario: Password:

Buscar:
Acordes y Tablaturas >> Letra a >> Acordes de aventura >> amor de madre
Tablatura de amor de madre, aventura

Amor de madre

Aventura

Transcriptor:
alfonso asitimbay
Letras de Canciones
Acordes para Guitarra





Intro:
 Am

E-0—-101010-12-12h13-101010-10-13-10-10h12-8
B-1---------------------------------------------
G-2---------------------------------------------
D-2---------------------------------------------
A-0---------------------------------------------
E-0---------------------------------------------
  Rasgueo
  Arriba
  Dedos

E-888-10/12-8-10-8-88810/12-8-10--------
B------------------------------- 101010-
G---------------------------------------

E-10-12-12h13-101010-10-13-10-10h12-8--
B--------------------------------------
G--------------------------------------

E-888-10/12-8-10-8-88810/12-8-10-------
B--------------------------------------
G--------------------------------------

E--------------------------------------
B-101010-------------------------------
G--------10101010/12/10-10-9-----------
  Dm
E-5-5-5-5-5-5-5-5-5-5--
B-6---------6----------
G-7--7-7-7--7--7-7-7---...trece de diciembre...
D-7---------7----------
A-5---------5----------
E-5---------5----------


Que te parecio? Calificalo con estrellas!!

Rating: 7.7/10 (443 votos)

Este fichero es trabajo propio de su transcriptor y representa su interpretación personal de la canción. El material contenido en esta página es para exclusivo uso privado, por lo que se prohibe su reproducción o retransmisión, así como su uso para fines comerciales.


Deja tus comentarios:
Letras de canciones | Musica Independiente