Acordes y tablaturas para guitarra

Acordes y Tablaturas
Usuario: Password:

Buscar:
Acordes y Tablaturas >> Letra s >> Acordes de slayer >> raining blood
Tablatura de raining blood, slayer

Raining blood

Slayer






 Intro
  Fast Rock Q=178
 4/4
  Gtrs I, II
                 PM--|
  Wx2            E E E E E E Q    E E Q  E E Q
|------------||-----------------|-----------------||
|------------||o----------------|----------------o||
|------------||-----------------|-----------------||
|------------||----------8-9-8--|---8-7----7-6----||
|------------||o-------7--------|-9------8-------o||
|------------||--0-0-0----------|-----------------||
Feedback

 4/4
  Gtr II
  PM--|                            PM--|
  E E E E E E Q    E E Q  E E Q    E E E E E E  Q     E  E  Q  E E Q
|----------------|---------------|------------------|-----------------||
|----------------|---------------|------------------|-----------------||
|----------------|---------------|------------------|-----------------||
|---------8-9-8--|---8-7----7-6--|---------8-9--8---|----8--7----7-6--||
|-------7--------|-9------8------|-------7----------|-9--------8------||
|-0-0-0----------|---------------|-0-0-0------------|-----------------||
|
| Gtr I
| PM--|                            PM--|
| E E E E E E Q    E E Q  E E Q    E E E E E E  Q     E  E  Q  E E Q
|----------------|---------------|------------------|-----------------||
|----------------|---------------|------------------|-----------------||
|---------8-9-8--|---8-7----7-6--|---------8-9-[8]--|---[8]-7----7-6--||
|-------7--------|-9------8------|-------7----------|-9--------8------||
|----------------|---------------|------------------|-----------------||
|-0-0-0----------|---------------|-0-0-0------------|-----------------||


    Gtrs I, II
    PM-------------------------------------------------
    S S E S S E S S E S S E   S S E S S E S S E S S E
||--------------------------|-------------------------|
||o-------------------------|-------------------------|
||--------------------------|-------------------------|
||--------------------------|-------------------------|
||o-------------------------|-------------------------|
||--0-0-0-0-0-0-0-0-0-0-0-0-|-0-0-0-0-0-0-0-0-0-0-0-0-|


 -------------------------------|
  S S E S S E S S E S S E   E E E E E E E E    4x
|-------------------------|--------------------||
|-------------------------|-------------------o||
|-------------------------|--------------------||
|-------------------------|---------3-2--------||
|-------------------------|-------4-----3-2---o||
|-0-0-0-0-0-0-0-0-0-0-0-0-|-0-2-4--------------||


    Faster Q=214
    PM--------------------------------------------------------------------|
    S S S S S S S S S S S S S S S S         S S S S S S S S S S S S S S S S
||-----------------------------------||-||----------------------------------|
||o---------------------------------o||-||o---------------------------------|
||-----------------------------------||-||----------------------------------|
||-----------------------------------||-||----------------------------------|
||o---------------------------------o||-||o---------------------------------|
||--5-3-2-0-6-4-3-0-5-3-2-0-6-4-3-0--||-||--5-3-2-0-6-4-3-0-5-3-2-0-6-4-3-0-|


  PM--------------------|   PM----------------------------------|
  S S S S S S S S S S S S E S S   S S S S S S S S S S S S S S S S
|-------------------------------|----------------------------------|
|-------------------------------|----------------------------------|
|-------------------------------|----------------------------------|
|-------------------------3-----|----------------------------------|
|-------------------------1-----|----------------------------------|
|-5-3-2-0-6-4-3-0-5-3-2-0---0-3-|-5-3-2-0-6-4-3-0-5-3-2-0-6-4-3-0--|


  1.,2.                       3.
  PM------------|      PM--------------------|
  S S S S S S S S Q  E S S     S S S S S S S S Q  Q
|---------------------------||-----------------------||
|--------------------------o||-----------------------||
|---------------------------||-----------------------||
|---------------------------||-----------------------||
|-----------------5--8-----o||-----------------5--8--||
|-5-3-2-0-6-4-3-0-3--6-0-3--||-5-3-2-0-6-4-3-0-3--6--||


   1st Verse
    PM--------|           PM--------|
    E S S S S E  E E Q    E S S S S E Q   Q
||----------------------|--------------------|
||o---------------------|--------------------|
||----------------------|--------------------|
||-----------------9-8--|--------------------|
||o-------------10-7-6--|-------------9--12--|
||--0-0-0-0-0-0--8------|-0-0-0-0-0-0-7--10--|


  PM--------|           PM--------|
  E S S S S E  E E Q    E S S S S E Q   Q   4x
|---------------------|---------------------||
|---------------------|--------------------o||
|---------------------|---------------------||
|----------------9-8--|---------------------||
|-------------10-7-6--|-------------9--12--o||
|-0-0-0-0-0-0--8------|-0-0-0-0-0-0-7--10---||


    Slower Q=188
    PM----|               PM--|
    E E E E S  S S S Q    E E E E  E E Q    E E E E E E E E   E E E E Q  Q
||----------------------|-----------------|-----------------|-----------------||
||o---------------------|-----------------|-----------------|----------------o||
||----------------------|-----------------|-8-8-8-8-8-8-8-8-|-8-8-8-8---------||
||----------------------|------------8-7--|-8-8-8-8-8-8-8-8-|-8-8-8-8-7--7----||
||o---------7h10p8p7-8--|-------7-10------|-6-6-6-6-6-6-6-6-|-6-6-6-6-7--7---o||
||--0-0-0-0-------------|-0-0-0-----------|-----------------|---------5--5----||


   Bridge
    PM----|               PM--|
    E E E E S  S S S Q    E E E E  E E Q    E E E E E E E E   E E E E Q  Q
||----------------------|-----------------|-----------------|-----------------||
||o---------------------|-----------------|-----------------|----------------o||
||----------------------|-----------------|-8-8-8-8-8-8-8-8-|-8-8-8-8---------||
||----------------------|------------8-7--|-8-8-8-8-8-8-8-8-|-8-8-8-8-7--7----||
||o---------7h10p8p7-8--|-------7-10------|-6-6-6-6-6-6-6-6-|-6-6-6-6-7--7---o||
||--0-0-0-0-------------|-0-0-0-----------|-----------------|---------5--5----||


    Slightly Slower Q=185
    PM--|
    E E E E E E Q    E E Q  E E Q
||-----------------|----------------||-|
||o----------------|---------------o||-|
||-----------------|----------------||-|
||----------8-9-8--|---8-7----7-6---||-|
||o-------7--------|-9------8------o||-|
||--0-0-0----------|----------------||-|
|
|   W                W
||-----------------|----------------||-|
||o----------------|---------------o||-|
||-----------------|----------------||-|
||-----------------|----------------||-|
||o----------------|---------------o||-|
||-----------------|----------------||-|


    Gtr II
    PM--|
    E E E E  E  E  Q     E  E Q   E E Q
||--------------------|-------------------||
||o-------------------|------------------o||
||--------------------|-------------------||
||-----------8--9--8--|-----8-7-----7-6---||
||o-------7-----------|--9--------8------o||
||--0-0-0-------------|-------------------||
|
|   Gtr I
|   PM--|
|   E E E E  E  E  Q     E  E Q   E E Q
||--------------------|-------------------||
||o-------------------|------------------o||
||----------10-11-10--|----10-9-----9-8---||
||--------9-----------|-11-------10-------||
||o-------------------|------------------o||
||--0-0-0-------------|-------------------||


    Slightly Slower Q=180
    Gtrs I, II
    E E Q  E E Q    E E Q  E E Q    E E Q  E E Q    E E Q  E E Q
||----------------|---------------|---------------|-----------------||
||o---------------|---------------|---------------|----------------o||
||----------------|---------------|---------------|-----------------||
||----------------|---------------|---------------|-----------------||
||o-2-2----2-2----|-2-2----2-2----|-2-2----2-2----|-2-2----2-2-----o||
||--0-0----0-0----|-0-0----0-0----|-0-0----0-0----|-0-0----0-0------||


    E5
    Gtr II
    E E  Q   E E  Q     E E  Q   E E  Q     E E  Q   E E  Q
    | |      | |        | |      | |        | |      | |
    / /      / /        / /      / /        / /      / /

    Gtr I
    PM       PM         PM       PM         PM       PM
    E E  E E E E  E E   E E  E E E E  E E   E E  E E E E  E E
||--------------------|-------------------|-------------------|
||o-------------------|-------------------|-------------------|
||--------------------|-------------------|-------------------|
||---------9--------8-|--------7----------|--------9--------8-|
||o---7-10-----7-10---|---7-10-----7-10-9-|---7-10-----7-10---|
||--0--------0--------|-0--------0--------|-0--------0--------|


  E E  Q   E E  Q     E E  Q   E E  Q     E E  Q   E E  Q
  | |      | |        | |      | |        | |      | |
  / /      / /        / /      / /        / /      / /

  PM       PM         PM       PM         PM       PM
  E E  E E E E  E E   E E  E E E E  E E   E E  E E E E  E E
|-------------------|-------------------|--------------------||
|-------------------|-------------------|-------------------o||
|-------------------|-------------------|--------------------||
|--------7----------|--------9--------8-|--------7-----------||
|---7-10-----7-10-9-|---7-10-----7-10---|---7-10-----7-10-9-o||
|-0--------0--------|-0--------0--------|-0--------0---------||


   Chorus
    Gtrs I, II
    PM|     PM|       PM|     PM|       PM|     PM|       PM|     PM|
    E E E E E E E E   E E E E E E E E   E E E E E E E E   E E E E E E E E
||------------------|-----------------|-----------------|-------------------||
||o-----------------|-----------------|-----------------|------------------o||
||------------------|-----------------|-----------------|-------------------||
||------------------|-----------------|-----------------|-------------------||
||o-----5-9-----5-8-|-----5-7-----5s4-|-----5-9-----5-8-|-----5-7-----5s4--o||
||--0-0-3-7-0-0-3-6-|-0-0-3-5-0-0-3s2-|-0-0-3-7-0-0-3-6-|-0-0-3-5-0-0-3s2---||


  PM-----------------------------------------------------------------
  S S S S S S S S S S S S S S S S   S S S S S S S S S S S S S S S S
|---------------------------------|---------------------------------|
|---------------------------------|---------------------------------|
|---------------------------------|---------------------------------|
|---------------------------------|---------------------------------|
|---------------------------------|---------------------------------|
|-0-0-0-0-0-0-0-0-0-0-0-0-0-0-0-0-|-0-0-0-0-0-0-0-0-0-0-0-0-0-0-0-0-|


 2/4               4/4
 -------------------------------------------------|
  S S S S S S S S   S S S S S S S S S S S S S S S S
|-----------------|----------------------------------||
|-----------------|----------------------------------||
|-----------------|----------------------------------||
|-----------------|----------------------------------||
|-----------------|----------------------------------||
|-0-0-0-0-0-0-0-0-|-0-0-0-0-0-0-0-0-0-0-0-0-0-0-0-0--||


   Outro
    Faster Q=247
    PM-----------------------------------
    E E E E E E E E   E E E E E E E E  4x
||------------------|------------------||
||o-----------------|-----------------o||
||------------------|------------------||
||------------------|------------------||
||o-----------------|-----------------o||
||--0-0-0-0-0-0-7-7-|-6-6-6-6-3-3-3-3--||


 -------------------------------------|
      E E E E E E E E   E E E E E E E E
|-||------------------|------------------||
|-||o-----------------|-----------------o||
|-||------------------|------------------||
|-||------------------|------------------||
|-||o-----------------|-----------------o||
|-||--4-4-4-4-4-4-8-8-|-7-7-7-7-7-7-8-8--||


    PM--------------------------------------------------------------------|
    E E E E E E E E   E E E E E E E E  9x E E E E E E E E   E E E E E E E E
||------------------|------------------||-----------------|------------------|
||o-----------------|-----------------o||-----------------|------------------|
||------------------|------------------||-----------------|------------------|
||------------------|------------------||-----------------|------------------|
||o-----------------|-----------------o||-----------------|------------------|
||--0-0-0-0-0-0-7-7-|-6-6-6-6-3-3-3-3--||-0-0-0-0-0-0-0-0-|-0-0-0-0-0-0-0-0--|


  PM--------------------------|
  E E E E E E E E   E E E E E E Q    W
|-----------------|----------------|------*|
|-----------------|----------------|------*|
|-----------------|----------------|------*|
|-----------------|----------------|------*|
|-----------------|----------------|------*|
|-0-0-0-0-0-0-0-0-|-0-0-0-0-0------|------*|



Que te parecio? Calificalo con estrellas!!

Rating: 9.0/10 (528 votos)

Este fichero es trabajo propio de su transcriptor y representa su interpretación personal de la canción. El material contenido en esta página es para exclusivo uso privado, por lo que se prohibe su reproducción o retransmisión, así como su uso para fines comerciales.


Deja tus comentarios:
Letras de canciones | Musica Independiente