Enviado por: coka
Agrandar Letra
Reducir Letra


Otras Versiones de Fuera ropa:


Sr. Bikini, Fuera ropa

SR. BIKINI
Esta chida la rola para surfear y desmadrar todo 
Bueno aquí los dejo con Fuera Ropa

Intro:
E/----5-5---------5-------------------
a --------3-3-3-3---------------------
d ------------------------------------
g ------------------------------------
b ------------------------------------
e\------------------------------------

Luego dice:fuera ropa !!!!

E/----0-3-4-5-5-5-0-3-4-5------------- 
a ------------------------------------
d ------------------------------------
g ------------------------------------
b ------------------------------------
e\------------------------------------

1				
Aha

E/-----5-5-5-0-3-4-5------------------ 
a ------------------------------------
d ------------------------------------
g ------------------------------------
b ------------------------------------
e\------------------------------------

2uhu!!......



E/------------------------------------
a ----5-5-5-0-3-4-5-------------------
d ------------------------------------
g ------------------------------------
b ------------------------------------
e\------------------------------------



E/---0-3-4-5-5-5-0-3-4-5--------------
a ------------------------------------
d ------------------------------------
g ------------------------------------
b ------------------------------------
e\------------------------------------


E/----------------------------5-5---------5-----------
a ----7-7-7-3-5-7-5-5-5-0-3-5-----3-3-3-3-------------
d ----------------------------------------------------
g ----------------------------------------------------
b ----------------------------------------------------
e\----------------------------------------------------



E/----0-3-4-5-5-5-0-3-4-5------------- * 4
a ------------------------------------
d ------------------------------------
g ------------------------------------
b ------------------------------------
e\------------------------------------


E/------------------------------------
a ----0-3-4-5-5-5-0-3-4-5------------- * 2
d ------------------------------------
g ------------------------------------
b ------------------------------------
e\------------------------------------



E/----------------------------------5-5-------5-------
a ----0-3-5-7-7-7-3-5-7-5-5-5-0-3-5-----3-3-3---------
d ----------------------------------------------------
g ----------------------------------------------------
b ----------------------------------------------------
e\----------------------------------------------------

Aviso: Este fichero es trabajo propio de su transcriptor y representa su interpretación personal de la canción. El material contenido en esta página es para exclusivo uso privado, por lo que se prohibe su reproducción o retransmisión, así como su uso para fines comerciales.

Califica esta canción


Comentarios en Facebook