Enviado por:
Francisco3291

Ricardo Arjona, Dime Que No

Intro:
   C         G          Am           C
e-------0-3--3----------0-------0-----------------
B-1------------3---3/5----1---3---0--1------------
G---0------------0----------2------------0-0h2p0--
D-----2--------------------------------2----------
A-3---------------------0------------3------------
E------------3------------------------------------
  C                G                 C
e----------3-3/5-3----------------------
B-1-----3/5--------3-----------3/5---1--
G---0------------------0-0h2p0-------0--
D-----2--------------2------------------
A-3----------------------------------3--
E------------------3--------------------

(los riffs se tokan kuando va a empezar a tokar el arpegio)

Riff 1           Riff 2      Riff 3

e-----------    e-----0-    e-0—-0h1p0---
B-----------    B—-3-3--    B----------1-
G-----0-0h2-    G-0-----    G------------
D-0-2-------    D-------    D------------
A-----------    A-------    A------------
E-----------    E-------    E------------

Riff 4           Riff 5   Riff 6     Riff 7 Riff 8 Riff9   Riff 10

e-5h3-----0---   e----|---7-8---7—-5|----0-|----3|—-3---8|-13-12-10-12-
B--------3----   B-0h2|-------------|-7----|-1---|-------|-------------
G------------    G----|-------------|------|-----|-------|-------------
D-------------   D----|-------------|------|-----|-------|-------------
A-------------   A----|-------------|------|-----|-------|-------------
E-------------   E----|-------------|------|-----|-------|-------------



Riff 11      Riff 12    Riff 13               Riff 14

e-0-0h1-   e-13-12---  e------------------  e-------------10--
B-------   B------13-  B--5-7-7/8-7h5-7---  B-8-8h6-6--------8
G-------   G---------  G------------------  G-----------------
D-------   D---------  D------------------  D-----------------
A-------   A---------  A------------------  A-----------------
E-------   E---------  E------------------  E-----------------

C                G                   Am
Si me dices que si, piensalo dos veces;

Riff1 F              C                  G
     puede que te convenga decirme que no.

Riff2  C               G                      Am
       Si me dices que no puede que te equivoques;

Riff3  F                C                       G Riff4
      yo me dare a la tarea de que me digas que si.

Riff5 C      Riff6   G    Riff7     Am     Riff8      Riff9 Em
     Si me dices que no dejare de soñar y me volvere un idiota,
Riff6 F              C            G                   F
     mejor dime que no y dame ese si como un cuenta gotas.

 Em Riff10     D               Am
Dime      que no,pensando en un si

Riff11                    Em
       y dejame lo otro a mi.
F                    C
que si se me pone facil
                         Riff 12
G                  F          Em       Am  Riff 13
el amor se hace fragil y uno para de soñar.
D         G  Riff 14
Dime que no,
             C           C   G
y deja la puerta abierta.

CORO:
C         G
Dime que no

D               Em                   Am
y me tendras pensando todo el dia en ti,

F                  C              G
planeando una estrategia para un si.

C         G
Dime que no

D             Em          Am
y lanzame un si camuflageado,

F             C
clavame una duda

G                   C
y me quedare a tu lado.

C               G                    Am
Si me dices que si se fugara lo incierto,
F                      C                        G
y esa cosquilla en la panza cuando estas por venir.
C               G                   Am
Si me dices que no seguire conquistando,
F                C                    G
descubriendote cosas que ni tu te conoces.

CORO:
C        G
Dime que no
D               Em               Am
y me tendras pensando todo el dia en ti,
F                  C            G
planeando la estrategia para un si.
C        G
Dime que no
D            Em          Am
y lanzame un si camuflajeado,
F             C
clavame una duda
G                   C
y me quedare a tu lado.

SOLO 1:

e-12----12p10-----8-7-7/10—-12-----10-12h10-8/10---14p15—17—-15-
B--------------10----------------13-----------------------------
G----12------------------------12-------------------------------
D---------------------------------------------------------------
A---------------------------------------------------------------
E---------------------------------------------------------------

e--------------------
B-8p7p8p7p8p7p8------
G----------------7-7-
D--------------------
A--------------------
E--------------------

G           D                 Em
Siempre lo facil me duro tan poco,
C            G        D
y no lo niego me diverti.
G           D                  Em
Pero la soledad me ha vuelto loco,
C           G              Am       F#   G#
porque el amor nunca ha pasado por aqui.

CORO:
Dime que no
D#               F                  A#m
y me tendras pensando todo el dia en ti,
F#                C#            G#
planeando la estrategia para un si.
C#       G#
Dime que no
D#           F           A#m
y lanzame un si camuflajeado,
F#            C#
clavame una duda
G#                  C#
y me quedare a tu lado.
C#       G#
Dime que no
D#               F                  A#m
y me tendras pensando todo el dia en ti,
F#                C#            G#
planeando la estrategia para un si.
C#       G#
Dime que no
D#           F           A#m
y lanzame un si camuflajeado,
F#            C#
clavame una duda
G#                  C#
y me quedare a tu lado.

SOLO 2:

e-13---13p11----8-9-9/11-11h13-11-9-8-8p9p8p9p8p9p8-6—-6-4--
B------------11—--------------------------------------------
G---13------------------------------------------------------
D-----------------------------------------------------------
A-----------------------------------------------------------
E-----------------------------------------------------------

e-------4-----13---13p11—-9—11h9-11-11h13—-11-9-8-8—-9-8-6--
B-6h4-6-----------------------------------------------------
G---------------13------------------------------------------
D-----------------------------------------------------------
A-----------------------------------------------------------
E-----------------------------------------------------------

e-6-4---4-6—-4-----2---1-------
B-----6--------------------(2--
G--------------------------(4)-
D------------------------------
A------------------------------
E------------------------------

C#       G#   D#  F  A#m  F#  C#  G#
Dime que no    uuHHH
Aviso: Este fichero es trabajo propio de su transcriptor y representa su interpretación personal de la canción. El material contenido en esta página es para exclusivo uso privado, por lo que se prohibe su reproducción o retransmisión, así como su uso para fines comerciales.
comentario del colaborador: esta cancion esta exacta si quieren pruebenla reclamos o dudas mi mail es [email protected]

Califica esta canción


Comentarios en Facebook