Patricio Rey Y Sus Redonditos De Ricota, Esa Estrella Era Mi Lujo

INTRO: Am F #1 + #3 x 4 / #2 (o Am F E Am x 3)
  #1
e|------------------------
B|------------------------
G|---2-0-2-0--0-----------
D|---------------3-2------
A|------------------------
E|------------------------

  #2                                                         Am
e|-----------------------------------------------------------
B|-1-0-------------------------------------------------------
G|-----2-0-------------------------8-9_10---9----------------
D|---------3----2---------------7-9-------------7---------3-2
A|-----------------------7-9-10------------------------------
E|-------------------5---------------------------------------

(Suenan como bajos)
  #3        Am| #4      Am
e|------------|e----------
B|------------|B----------
G|------------|G----------
D|------------|D----------
A|-------3-0--|A--3-2-0---
E|-0-3-5------|E----------

Am               F
  '¿Era todo?', pregunté
 E           Am   #3
  (soy un iluso).
Am              F
  No nos dimos nada más,
 E              Am   #4
  sólo un buen gesto.

Intro 
 
  Mordí el anzuelo una vez más
  (siempre un iluso),
  nuestra estrella se agotó
  y era mi lujo.

Intro + Solo (Am F E Am)
e|-----------------------------------------------------------------
B|-1-0---------------------------------8-10--10-8---8-10-----------
G|-----2-0----------------------7-9-10------------9-------9-7----9-
D|---------3----2--------7-9-10------------------------------10----
A|-----------------------------------------------------------------
E|-------------------5---------------------------------------------

e|-----------------------------------------------------------|-----
B|-----------------------------------------------------------|-----
G|-----------------------------9-7----9-7----9-7-------------|-----
D|------7-10--7-------7-10---------10-----10-----10-9-10-9---|-----
A|-7-10----------7-10-------8------------------------------7-|-7-10
E|-----------------------------------------------------------|-----



e|-----------------7-8-10-8--7--8--7------7-8-7-----------|
B|----------8-10----------------------10--------8--5_8-10-|
G|------7-9-----------------------------------------------|
D|-7-10---------------------------------------------------|
A|--------------------------------------------------------|
E|--------------------------------------------------------|

    (Más ráapido)
  Ella fue por esa vez
                     #3
  mi héroe vivo, ¡Bah!
  Fue mi único héroe
            #3
  en este lío.

  La más linda del amor
  que un tonto ha visto soñar
                            E
  metió, metió mi rock & roll...
  (Silencio)    Am
  bajo este pulso.
Aviso: Este fichero es trabajo propio de su transcriptor y representa su interpretación personal de la canción. El material contenido en esta página es para exclusivo uso privado, por lo que se prohibe su reproducción o retransmisión, así como su uso para fines comerciales.

Califica esta canción


Comentarios en Facebook