Acordes y tablaturas para guitarra

Acordes y Tablaturas
Usuario: Password:

Buscar:
Acordes y Tablaturas >> Letra s >> Acordes de sex pistols >> Good save the queen
Tablatura de Good save the queen, sex pistols

Good save the queen

Sex pistols

Transcriptor:
punk-rock boy
Letras de Canciones
Acordes para Guitarra





----------------------------------------------------------------------------
God Save The Queen
----------------------------------------------------------------------------

INTRO
                                x2
|---------------------------------||-------------------------------|
|---------------------------------||-------------------------------|
|---------------------------------||-------------------------------|
|----6/7--7--7------7--7--7-------||----6/7--7--7--6/7--7--7-------|
|----6/7--7--7------7--7--7-------||----6/7--7--7--6/7--7--7-------|
|----4/5--5--5------5--5--5-------||----4/5--5--5--4/5--5--5-------|

|---------------------------------|
|---------------------------------|
|---------------------------------|
|----6/7--7--7------7--7--7-------|
|----6/7--7--7------7--7--7-------|
|----4/5--5--5------5--5--5-------|

PRE-VERSE
                                          x3                                x2
|---------------------------------------------||---------------------------------|
|---------------------------------------------||---------------------------------|
|--------------------------7--7--x--6--7------||---------------------------------|
|--------------------------7--7--x--6--7------||----6/7--7--7------7--7--7-------|
|----7----7--7----7--7--7--5--5--x--4--5------||----6/7--7--7------7--7--7-------|
|----5----5--5----5--5--5---------------------||----4/5--5--5------5--5--5-------|

VERSE  (x2)
                                          x3                                  x2
|----------------------------------------------||---------------------------------|
|----------------------------------------------||---------------------------------|
|-------------------------7--7--7--x--6--7-----||---------------------------------|
|-------------------------7--7--7--x--6--7-----||----6/7--7--7------7--7--7-------|
|----7--7--7--7--7--7--7--5--5--5--x--4--5-----||----6/7--7--7------7--7--7-------|
|----5--5--5--5--5--5--5-----------------------||----4/5--5--5------5--5--5-------|
     pm.................

CHORUS  (x2)

|------------------------------------------||-----------------------------------|
|------------------------------------------||-----------------------------------|
|----9--9----------8/9--9--9--8/9--9--9----||----9--9----------8/9----9----9----|
|----9--9--9--9----8/9--9--9--8/9--9--9----||----9--9--9--9----8/9----9----9----|
|----7--7--9--9----6/7--7--7--6/7--7--7----||----7--7--9--9----6/7----7----7----|
|----------7--7----------------------------||----------7--7---------------------|

PRE-VERSE II  ("God save the queen...")
                                          x2
|---------------------------------------------|
|---------------------------------------------|
|--------------------------7--7--x--6--7------|
|--------------------------7--7--x--6--7------|
|----7----7--7----7--7--7--5--5--x--4--5------|
|----5----5--5----5--5--5---------------------|
                                                                   3rd time
|-------------------------------------------------------------------------------|
|-------------------------------------------------------------------------------|
|--------------------------9--9--9--9----9--9--9-----------DRUMS----------------|
|--------------------------9--9--9--9----9--9--9-----------SOLO-----------------|
|----7----7--7----7--7--7--7--7--7--7----7--7--7--7-----------------------------|
|----5----5--5----5--5--5-------------------------5-----------------------4~~~~~|

VERSE (x2)
CHORUS (x2)
PRE-VERSE II

SOLO (PLAYED OVER F#5 AND B5)
                                             x4
|--------2-2-2---------------------------------|
|----1/2-2-2-2--------4----4--5h4--5h4---x-----|
|---------------------4----4--4----4-----x-----|
|-----------------4-4-4----4--4----4-----x-----|
|----------------------------------------------|
|----------------------------------------------|

PRE-VERSE II

OUTRO ("NO FUTURE !!!!!!!!" ...)  (x3)
                                       x3    Only th 1st and 2nd times, 3rd time : INTRO
|----------------------------------------|  |---------------------------------|
|----------------------------------------|  |---------------------------------|
|----7----7----7-7-7-7--6----4-----------|  |---------------------------------|
|----7----7----7-7-7-7--6----4-----------|  |----7-7-7-x-7---x-7---7---x-7----|
|----5----5----5-5-5-5--4----2-----------|  |----7-7-7-x-7---x-7---7---x-7----|
|----------------------------------------|  |----5-5-5-x-5---x-5---5---x-5----|


Que te parecio? Calificalo con estrellas!!

Rating: 7.0/10 (68 votos)

Este fichero es trabajo propio de su transcriptor y representa su interpretación personal de la canción. El material contenido en esta página es para exclusivo uso privado, por lo que se prohibe su reproducción o retransmisión, así como su uso para fines comerciales.


Deja tus comentarios:
Letras de canciones | Musica Independiente