Enviado por: mario.rasta
Agrandar Letra
Reducir Letra
Imprimir



Eric Clapton, cocaine

En la parte del estribillo:



She´s all right
B/-------8--/
G/---9-9----/

She´s all right
B/-------8--/
G/---9-9----/

She´s all right
B/--------8--/
G/---9-9-----/

Cocain
G/---9-9-7-9-------/
D/------------------9-9-7-----/   Repatir 2 o 3 veces
A/------------------------9-7-/

       
Aviso: Este fichero es trabajo propio de su transcriptor y representa su interpretación personal de la canción. El material contenido en esta página es para exclusivo uso privado, por lo que se prohibe su reproducción o retransmisión, así como su uso para fines comerciales.

Califica esta canción


Comentarios en Facebook