Acordes y tablaturas para guitarra

Acordes y Tablaturas
Usuario: Password:

Buscar:
Acordes y Tablaturas >> Letra S >> Acordes de System of a down >> Hypnotize
Tablatura de Hypnotize, System of a down

Hypnotize

System of a down






Chords:
  G    - 555xxx
  Eb   - 131313xxx (or 111xxx during verse)
  F    - 151515xxx
  Bb   - 888xxx
  Open - 000xxx

Intro.I
  Eb------------------------------------
  Bb-1-1-3-3-3-3-3-3-3-4-4-3-3-1-1-0-0--
  Gb--0-0-0-0-0-0-0-0-0-0-0-0-0-0-0-0-0-
  Db------------------------------------
  Ab------------------------------------
  Db------------------------------------

Intro.II
  --------------------------------------------
  -8-8-7-7-10-10-8-8-12-12-10-10-13-13-12-12--
  --0-0-0-0--0--0-0-0--0--0--0--0--0--0--0--0-
  --------------------------------------------
  --------------------------------------------
  --------------------------------------------


Riff.I
  -----------------------------------------------------------------------
  -15-15-13-13-12-12-10-10-13-13-12-12-10-10-8-8-11-11-10-10-8-8-7-7-----
  ---0--0--0--0--0--0--0--0--0--0--0--0--0--0-0-0--0--0--0--0-0-0-0-0----
  -----------------------------------------------------------------------
  -----------------------------------------------------------------------
  -----------------------------------------------------------------------

Riff.II
G D FG D FG(palm muted)

Solo
  --------------7---7h8-10--8-7-8--7h8p7----7---------7-8-7-7h8p7----7-------
  ----8------10--------------------------10---10-8-10-------------10----10---
  ---------------------------------------------------------------------------
  ---------------------------------------------------------------------------
  ---------------------------------------------------------------------------
  ---------------------------------------------------------------------------

INTRO
  Intro.I x 2
  Intro.II x 2
  Riff.I

  VERSE
   [chord strikes on the syllables...G on the first 4, Eb on the 6th and so on]
  G    G    GG      Eb  G   G   GG            Eb
  Why don't you...

   G   G       GG      Eb G   G    GG      Eb
  Was fashion the...

   G   G    GG   Eb G  G  GG  Eb
  They disguise...

  G G  GG Eb G    G   GG  Eb
   Television...

  CHORUS
   Riff.I
  I'm just sitting...

  (Riff.I continues)
   And waiting...

  VERSE
   G     G      G    G Eb   G    G   GG        Eb
  She's scared that...

   G    G     G   G       Eb  G    G    G  G   Eb
  Her dreams and ...

   G  G  GG  Eb  G  G   GG   Eb
  Mezmerize ...

  G  G  GG Eb G     G  GG   Eb
   Propaganda ...

  CHORUS
   Riff.I
  I'm just sitting...

  (Riff.I continues)   G  G  GG  Eb G  G  GG Eb
   And waiting for my girl[sustain "girl" throughout]

  G        Eb             F
  I'm just sitting...

       Bb      Open   Riff.II
  And waiting........girl

  BREAK
  Layer 1: Riff.II  x 11 [66 beats]
  Layer 2: Solo x 2
            drone on 8th fret on B string
  Layer 3: Intro.I x 2
            Intro.II x 2
  CHORUS
   G        Eb             F
  I'm just sitting...

       Bb      Open   Riff.II
  And waiting........girl

  GGGGG    EbEbEbEbEb EbEbEbEbEb  FFFFF
   I'm just sitting...

      BbBbBbBbBb  Openx5
   And waiting for my...

  ------------------------------------
  -1-1-3-3-3-3-3-3-3-4-4-3-3-1-1h31-0-
  --0-0-0-0-0-0-0-0-0-0-0-0-0-0-----0-
  ------------------------------------
  ------------------------------------
  ------------------------------------
  girl


Que te parecio? Calificalo con estrellas!!

Rating: 6.4/10 (92 votos)

Este fichero es trabajo propio de su transcriptor y representa su interpretación personal de la canción. El material contenido en esta página es para exclusivo uso privado, por lo que se prohibe su reproducción o retransmisión, así como su uso para fines comerciales.


Deja tus comentarios:

Letras de System of a down
Letras de canciones | Musica Independiente